Oops, an error
Loading. Please wait.

Por Las Costas Entrerrianas tab

91 views 1 this week
no commentswrite comment
1 2 3 4 5
3 more votes to show rating
add to favorites
×
Save as Personal and add changes to this tab that will be seen only by you. Learn more ›
×
You can save this tab as Personal to edit and correct it or add notes. All changes will be seen only by you. Learn more »
launch autoscroll
font size
0
reset
how to read this tab
guitar tuner
edit
Autoscroll
slow
fast
+/-
esc
set tempo
stop
TONO ORIGINAL Bm

Am -Am-G-F-E7
Am -Am-G-F-E7-Dm-C-E7-Am
Am -Am-G-F-E7 F7 E7 Am B G Em

E:-------------------0-2/3-1-0-----------------------------|
B:----------2-3-3-3------------------------2-2-2--3-5-4-3--|
G:---4-4-4------------------------3-3-3--4-----------------|
D:-4-------------------------------------------------------|
A:------------------------------4--------------------------|
E:---------------------------------------------------------|

E:-------------------0-2/3-1-0---2-3-2-0---------------------|
B:----------2-3-3-3----------------------3-2-0---------------|
G:---4-4-4-------------------------------------3-0-----------|
D:-4-----------------------------------------------4-2-0-----|
A:-------------------------------------------------------4-2-|
E:-----------------------------------------------------------|

E:-------------------0-2/3-2----6-9-9/6---6---9---6-------|
B:----------2-3-3-3-----------7---------7---7---7---------|
G:---4-4-4------------------------------------------------|
D:-4------------------------------------------------------|
A:--------------------------------------------------------|
E:--------------------------------------------------------|

E:---7-10-10/7---7---10---7-------6-9-9/6---6---9---9-7------1--1/0---------2--4---|
B:-8-----------8---8----8-------7---------7---7---7------2-4--------2-0---2----2---|
G:----------------------------------------------------------------------2------2---|
D:---------------------------------------------------------------------------------|
A:---------------------------------------------------------------------------------|
E:---------------------------------------------------------------------------------|


Em
 Fulgor del amanecer
    E7              Am
por las costas entrerrianas
                     D
cruzando el Gualquiraró
                     G
casi llegando a Corrientes
                   C
Se siente la sensación
           Am           B7
de estar viviendo en el cielo
con una dulce mujer
                   Em
que nadie pudo igualarla

Em
 Verdor del saucedal
       E7           Am
que el agua va acariciando
                  D
allá pasa un pescador
                    G
que va en la popa bogando
               C
Y canta mi corazón
          Am            B7
porque no existe en el mundo
una fortuna mayor
                           Em
que estar volviendo a esos pagos

E7 - Am

           Am    G      F        E7
Y pienso chamigo que linda es la vida,
                                  Am
que linda es mi tierra y mi gente también
               Am    G       F       E7
Y pienso en el Yoyi, en Claudia y el Carlos
     Dm        C         E7     Am
y el pelado Lezcano que no olvidaré.

           Am     G     F      E7
Amigos del alma que alegran la vida
                                Am
y me dan las fuerzas para no aflojar
              Am     G     F     E7
Y gritarle al mundo en un mano a mano
     Dm       C         E7        Am
para esa entrerriana ciudad de la paz.

Em
 Cuando salgo a recorrer
 E7             Am
esos ríos de mi tierra
                    D
suelo llorar sin querer
                     G
por la belleza que encierra
                       C
Me embarga una onda emoción
         Am         B7
por ese amor a mi tierra
Y si encuentro una mujer
                        Em
soy como el indio en la guerra.

Em
 Con el caballo cuatiau
  E7             Am
viene Linares Cardozo
                    D
nadando hasta el Paraná
                   G
y el alma llena de gozo
                C
Cuando lo veo pasar
     Am            B7
de arriba de la barranca
suelo chiflarle de mas
                     Em
para que me lleve en ancas.

E7 - Am

           Am    G      F        E7
Y pienso chamigo que linda es la vida,
                                  Am
que linda es mi tierra y mi gente también
               Am    G       F       E7
Y pienso en el Yoyi, en Claudia y el Carlos
     Dm        C         E7     Am
y el pelado Lezcano que no olvidaré.

           Am     G     F      E7
Amigos del alma que alegran la vida
                                Am
y me dan las fuerzas para no aflojar
              Am     G     F     E7
Y gritarle al mundo en un mano a mano
     Dm       C         E7        Am
para esa entrerriana ciudad de la paz.

            
            
Suggest correction
Creating personal tab
Creating personal tab
You can edit any tab online and save it as your Personal.

You can edit, replace or remove any tab part or add personal notes – all changes will be seen only by you.

Personal tabs can be accessed anytime from any device, even offline.
Learn more »
Give kudos to tab author, rate the tab!
1 2 3 4 5
comments
print report bad tab
guest
Wanna post a correction for this tab? Suggest correction