Oops, an error
Loading. Please wait.

Dont Give Up On Me tab

version 1
version 1

Whole song

14,818 views 45 this week
no commentswrite comment
1 2 3 4 5
x 3
add to favorites
×
Save as Personal and add changes to this tab that will be seen only by you. Learn more ›
×
You can save this tab as Personal to edit and correct it or add notes. All changes will be seen only by you. Learn more »
launch autoscroll
font size
0
reset
how to read this tab
guitar tuner
edit
Autoscroll
slow
fast
+/-
esc
set tempo
stop
SOLOMON BURKE – DON’T GIVE UP ON ME

By oddos aka zappy the koala

Here's the pattern...enjoy!

[Intro]
   Bb
e|-------------------------------------------------------------|
B|-------3-----------3-4-3-----------3-----------3-------------|
G|-----3---3-------3-------3-------3---3-------3---3-----------|
D|---3-------3---3-----------3---3-------3---3-------3---------|
A|-1-----------1---------------1-----------1-------------------|
E|-------------------------------------------------------------|

[Verse]
   Bb          D/A                     Ab7-5
e|-------------------------------------------------------------|
B|-------3-----------3-----------3-----------3-----------3-----|
G|-----3---3-------2---2-------2---2-------5---5-------5---5---|
D|---3-------3---4-------4---4-------4---4-------4---4-------4-|
A|-1-----------------------------------------------------------|
E|-------------5-----------5-----------4-----------4-----------|

   Cm7         Ebm         Bb          D/F#        Gm
e|-------------------2-----------1-----------2-----------3-----|
B|-------4---------4---4-------3---3-------3---3-------3---3---|
G|-----3---3-----3-------3---3-------3---2-------2---3---------|
D|---5-------5-4-----------3-----------4-----------5---------5-|
A|-3-----------------------------------------------------------|
E|-------------------------------------------------------------|

[Chorus]
   G             Cm7            F#      Fmaj7      Bb
e|-------3-----------------------------------------------------|
B|-----3---3-----------4---------------------------------------|
G|---4-------4-------3---3-------------------------------------|
D|-5---------------5-------5-----------------------------------|
A|---------------3-----------3---------------------------------|
E|-------------------------------------------------------------|


Bb                 D/A
   If I fall short, if I don't make the grade
Ab7-5                                         G7
     If your expectations aren't met in me today
                  Cm7                 Ebm
There is always tomorrow, or tomorrow night
                  Bb          D/F#
Hang in there baby, sooner or later
                   Gm     G
I know I'll get it right,

Please, don't give up on me
Oh please don't give up on me
I know it's late, late in the game
But my feelings, my true feelings
Haven't changed
Here in my heart

I know, I know I was wrong, wrong wrong, wrong, wrong, wrong
I'd like to make amends for the love that I never, ever, ever, ever shown
Just don't give up on me, every word is true

I'll give you my everything, all of my love,all of my love, all of my love love love
Just don't give up on me
Oh please, please, please
Don't give up on me.

I don't want you to
I know it's late, but wait, please, please, please, please
Don't give up on me
Promise, will you promise, will you promise me
Please don't give up on me

We can make it if we try
I'm gonna hold on, hold on with me
And don't give up on me, oh-ooh, -oohohoooh -baby
Oh baby, Oh baby, please, don't-give-up-on-me
Whatever you do, we gonna make it, gonna make it through
Don't you give up on me, please, please, please.... Promise me
Don't-give-up-on-me.

            
            
Suggest correction
Creating personal tab
Creating personal tab
You can edit any tab online and save it as your Personal.

You can edit, replace or remove any tab part or add personal notes – all changes will be seen only by you.

Personal tabs can be accessed anytime from any device, even offline.
Learn more »
Give kudos to tab author, rate the tab!
1 2 3 4 5
comments
print report bad tab
guest
You may want to rate the tab now too:
select rating
Wanna post a correction for this tab? Suggest correction