Oops, an error
Loading. Please wait.

Drunk Girl bass

version 1
version 1

Whole song

Interactive

836 views 1 this week
1 commentread comment
1 2 3 4 5
3 more votes to show rating
add to favorites
×
Save as Personal and add changes to this tab that will be seen only by you. Learn more ›
×
You can save this tab as Personal to edit and correct it or add notes. All changes will be seen only by you. Learn more »
launch autoscroll
font size
0
reset
guitar tuner
edit
Autoscroll
slow
fast
+/-
esc
set tempo
stop
Author
numbers in brackets)= optional notes/ every once and a while


main riff
G-----------------------------|
D-----------------------------|
A-----2-2/10-7-7-3-3-(2)------|
E-3-3 ------------------------|

Or if you feel more comfortable like this

G---------------------------|
D----------/5-3-3-----------|
A-----2-2---------3-3 (2)---|
E-3-3-----------------------|

Bridge

G----------------|
D----------------|
A----3-3---------|
E-5-5----3-3-3-3-|

You’ve of had your fun .
1234 1234 /15 ?-just to give and idea of when to slide
G---------------------------|
D---------------------------|
A-3-3-3-3-3-3------/15<-----|let ring then back to the main riff
E---------------------------|

thats it have fun

            
            
Suggest correction
Creating personal tab
Creating personal tab
You can edit any tab online and save it as your Personal.

You can edit, replace or remove any tab part or add personal notes – all changes will be seen only by you.

Personal tabs can be accessed anytime from any device, even offline.
Learn more »
Give kudos to tab author, rate the tab!
1 2 3 4 5
comments
print report bad tab
1 comment total.
0 reply
Arlin 166 Nov 09, 2007 10:36 AM

Or if you feel more comfortable like
this

G---------------------------|
D----------/5-3-3-----------|
A-----2-2---------3-3
(2)---|
E-3-3-----------------------|

it should actually
be:
G---------------------------|
D----------/5-2-2-----------|
A-----2-2---------3-3
(2)---|
E-3-3-----------------------|

guest
You may want to rate the tab now too:
select rating
Wanna post a correction for this tab? Suggest correction