Oops, an error
Loading. Please wait.

Forget December tab

version 1
version 1

Whole song

Interactive

5,216 views 1 this week
5 commentsread comments
1 2 3 4 5
x 10
add to favorites
×
Save as Personal and add changes to this tab that will be seen only by you. Learn more ›
×
You can save this tab as Personal to edit and correct it or add notes. All changes will be seen only by you. Learn more »
launch autoscroll
font size
0
reset
how to read this tab
guitar tuner
edit
Autoscroll
slow
fast
+/-
esc
set tempo
stop
Author
Song:Forget December
Band:Something Corporate
Tabbed by:Eric M. (rufioyc@hotmail.com)


Intro/Verse:(1st Part)
e|--------------------------------------------------------------------|
B|-----------------(6-6-6-6-6-6-6-6)----------------------------------|
G|(7-7-7-7-7-7-7-7)-5-5-5-5-5-5-5-5-(5-5-5-5-5-5-5-5)-----------------|
D|-7-7-7-7-7-7-7-7--3-3-3-3-3-3-3-3--5-5-5-5-5-5-5-5-(5-5-5-5-5-5-5-5)|
A|-5-5-5-5-5-5-5-5-------------------3-3-3-3-3-3-3-3--5-5-5-5-5-5-5-5-|
E|----------------------------------------------------3-3-3-3-3-3-3-3-|
PM(...................................................................)

Verse:(2nd Part) (strumming not shown)
e|----------------------------|
B|-------[6-------------------|
G|--7----[5-or-10]----5-------|
D|--7----[3----10]----5----5--|
A|--5-----------8]----3----5--|
E|-------------------------3--|

Chorus:Guitar 1
e|-------------------------------------------------|
B|-[6----------------------------------------------|
G|-[5-or-10]-------5---------------7-------5-------|
D|-[3----10]-(x8)--5-(x8)--5-------7-(x4)--5-(x4)--|
A|--------8]-------3-------5-(x8)--5-------3-------|
E|-------------------------3-----------------------|

Chorus:Guitar 2 
e|---------------------------------|
B|---------------------------------|
G|-5----------------7-------5------|
D|-5-(x16)--5-------7-(x4)--5-(x4)-|
A|-3--------5-(x8)--5-------3------|
E|----------3----------------------|

Interlude:(x2) (anymore...anymore...)
e|--------------------------------------------|
B|--------------------------------------------|
G|-9-10-9-10-9-10-9-10-9-10-9-10-9-10-9-10-12-|
D|--------------------------------------------|
A|--------------------------------------------|
E|--------------------------------------------|

This is probably about 90% correct. If anyone has any corrections
please email me, thanx.

            
            
Suggest correction
Creating personal tab
Creating personal tab
You can edit any tab online and save it as your Personal.

You can edit, replace or remove any tab part or add personal notes – all changes will be seen only by you.

Personal tabs can be accessed anytime from any device, even offline.
Learn more »
comments
print report bad tab
5 comments total. Showing first comments.
0 reply
allergictoyou 55 Apr 02, 2003 07:00 PM

Looks right, nice tab again.

0 reply
insight1234 10 Aug 04, 2006 06:15 PM

Haha! I'm tabbing the full song now! Including piano parts, chello, you name it... BTW. Your verse is incorrect. It's like this:

Dm F5 C5 G5
|------------------------------------------------------------|
|6666666666666666--------------------------------------------|
|777777775555555555555555------------------------------------|
|77777777333333335555555555555555----------------------------|
|55555555--------3333333355555555----------------------------|
|------------------------33333333----------------------------|

0 reply
insight1234 10 Aug 04, 2006 06:17 PM

Wait. I think it's a G, not G5...:p

Dm F5 C5 G
|------------------------------------------------------------|
|6666666666666666-------(00000000)---------------------------|
|77777777555555555555555544444444----------------------------|
|77777777333333335555555555555555----------------------------|
|55555555--------3333333355555555----------------------------|
|------------------------33333333----------------------------|

guest
You may want to rate the tab now too:
select rating
Wanna post a correction for this tab? Suggest correction