Oops, an error
Loading. Please wait.

I Want To Save You bass

version 2
version 2

Whole song

447 views 1 this week
no commentswrite comment
1 2 3 4 5
1 last vote to show rating
add to favorites
×
Save as Personal and add changes to this tab that will be seen only by you. Learn more ›
×
You can save this tab as Personal to edit and correct it or add notes. All changes will be seen only by you. Learn more »
launch autoscroll
font size
0
reset
guitar tuner
edit
Autoscroll
slow
fast
+/-
esc
set tempo
stop
Author
Band: something corporate
Album: leaving through the window
Song: I want to save you

Really simple song
Tuning: drop d

G|----------------------------------|
D|----------------------------------| 
A|----------------------------------| x loads
D|-1~--------------6~---------------|

Pause

0:43

G|----------------------------------|
D|----------------------------------| 
A|----------------------------------| x4
D|-1-1-1-1-1-1-1-1-6-6-6-6-6-6-6-6--|

Pre-chorus 0:56

G|----------------------------------|
D|----------------------------------| 
A|-3333333333333333-----------------|
D|-----------------6666666666666666-|

G|----------------------------------|
D|----------------------------------| 
A|-3333333311111111-----------------|
D|-----------------6666666633333333-|

Chorus 1:09 

(It may be just the guitar doing the 33335555666 thing at the end
The bass may stick to 1111111111111111)

G|----------------------------------|
D|----------------------------------| 
A|---------333333331111333355556666-| x2
D|-1-111111-------------------------|

G|----------------------------------|
D|----------------------------------| 
A|---------333333331-1-1-1-1-1-1-1--|
D|-1-111111-------------------------|

G|----------------------------------|
D|----------------------------------| 
A|---------333333331111333355556666-|
D|-1-111111-------------------------|

1:41 verse

G|----------------------------------|
D|----------------------------------| 
A|----------------------------------| x8
D|-1-1-1-1-1-1-1-1-6-6-6-6-6-6-6-6--|

Pre-chorus 2:07

G|----------------------------------|
D|----------------------------------| 
A|-3333333333333333-----------------|
D|-----------------6666666666666666-|

G|----------------------------------|
D|----------------------------------| 
A|-3333333311111111-----------------|
D|-----------------6666666633333333-|

Chorus 2:20

G|----------------------------------|
D|----------------------------------| 
A|---------333333331111333355556666-| x2
D|-1-111111-------------------------|

G|----------------------------------|
D|----------------------------------| 
A|---------333333331-1-1-1-1-1-1-1--|
D|-1-111111-------------------------|

G|----------------------------------|
D|----------------------------------| 
A|---------333333331111333355556666-|
D|-1-111111-------------------------|

Bridge 2:47

G|----------------------------------|
D|----------------------------------| 
A|-1331331331331331-----------------| x2
D|-----------------6666666666666666-|

2:59

G|----------------------------------|
D|----------------------------------| 
A|-3-3-3-3--------------------------| x2
D|---------5-5-5-5-6-6-6-6-6-6-6-6--|

G|----------------------------------|
D|----------------------------------| 
A|----------------------------------|
E|-888888888888888866666666666666.--|

Chorus 3:19

G|----------------------------------|
D|----------------------------------| 
A|---------333333331111333355556666-| x2
D|-1-111111-------------------------|

G|----------------------------------|
D|----------------------------------| 
A|---------333333331-1-1-1-1-1-1-1--|
D|-1-111111-------------------------|

G|----------------------------------|
D|----------------------------------| 
A|---------333333331111333355556666-|
D|-1-111111-------------------------|

G|----------------------------------|
D|----------------------------------| 
A|---------333333331111111111111111-| x3
D|-1-111111-------------------------|

G|-------------------------------------------------|
D|-------------------------------------------------|
A|---------333333331-1-1-1-1-1-1-1-3~--------------|
D|-1-111111----------------------------------------|


            
            
Suggest correction
Creating personal tab
Creating personal tab
You can edit any tab online and save it as your Personal.

You can edit, replace or remove any tab part or add personal notes – all changes will be seen only by you.

Personal tabs can be accessed anytime from any device, even offline.
Learn more »
Give kudos to tab author, rate the tab!
1 2 3 4 5
comments
print report bad tab
guest
You may want to rate the tab now too:
select rating
Wanna post a correction for this tab? Suggest correction