Oops, an error
Loading. Please wait.

Konstantine bass

version 1
version 1

Whole song

Interactive

1,522 views 9 this week
2 commentsread comments
1 2 3 4 5
2 more votes to show rating
add to favorites
×
Save as Personal and add changes to this tab that will be seen only by you. Learn more ›
×
You can save this tab as Personal to edit and correct it or add notes. All changes will be seen only by you. Learn more »
launch autoscroll
font size
0
reset
guitar tuner
edit
Autoscroll
slow
fast
+/-
esc
set tempo
stop
Author
Konstantine by Something Corporate
This song was a bit difficult to tab because of the volume and such;
Enjoy and rate s.v.p.

There's no bass until the;
1st Chorus (2:29)
G|---------------------|  |---------------|
D|---------------------|  |---------------|
A|5--5--6--6--------3-1|x3|---------------|
E|------------1--1-----|  |-3~-----1~-----|

Once again, no bass until the Chorus at 3:38

Verse x22 (4:00)
G|-------------------------------------------------------------------------|
D|-------------------------------------------------------------------------|
A|11111111111111/55555555555555/1010101010101010101010101010\66666666666666
E|-------------------------------------------------------------------------

Last part of the verse x1 (8:08)
G|-------------------------------------------------|
D|-------------------------------------------------|
A|11111111111111/55555555555555-10~-------6~-------|
E|-------------------------------------------------|

Chorus x5
And then the thing x1
G|---------------|
D|---------------|
A|---------------|
E|-3~-----1~-----|

Done; enjoy and rate.

            
            
Suggest correction
Creating personal tab
Creating personal tab
You can edit any tab online and save it as your Personal.

You can edit, replace or remove any tab part or add personal notes – all changes will be seen only by you.

Personal tabs can be accessed anytime from any device, even offline.
Learn more »
Give kudos to tab author, rate the tab!
1 2 3 4 5
comments
print report bad tab
2 comments total.
0 reply
chrisjenks 2,712 Jul 10, 2008 07:15 AM

sounds pretty much there. i may have a different version because the first chorus starts at 2:11 with mine not 2:29. and on mine the first bit sounds like

G|------------------|
D|------------------|
A|-5-5-6-6-----1-1--|x2
E|---------1-1------|

G|---------------------------------|
D|---------------------------------|
A|-5-5-6-6-----1-0-----6\------11~-| (two 1's)
E|---------1-1-----3-------1~------|

then that long part with no bass

what do you think?

0 reply
khoneur 338 Aug 28, 2008 06:03 PM

Yea your right
i tabbed the live version
you have the CD version
but they must be pretty similiar considering there was no other problems
guess i should title it live version...

guest
You may want to rate the tab now too:
select rating
Wanna post a correction for this tab? Suggest correction