Oops, an error
Loading. Please wait.

Shy tab

version 3
version 3

Whole song

38,198 views 27 this week
2 commentsread comments
1 2 3 4 5
x 5
add to favorites
×
Save as Personal and add changes to this tab that will be seen only by you. Learn more ›
×
You can save this tab as Personal to edit and correct it or add notes. All changes will be seen only by you. Learn more »
launch autoscroll
font size
0
reset
how to read this tab
guitar tuner
backing track
0:00
0:00
edit
Autoscroll
slow
fast
+/-
esc
set tempo
stop
Author
Difficulty
Shy by SonatAArcticA

(NOTE: THIS SONG IS A REAL PAIN IN THE ASS)

-INTRO:

HALF-STEP DOWN

(Keyboard arranged for guitar)

     Em          D
e||--------------------------|
B||-----------8-----------7--|
G||--------9-----------7-----|
D||-----9-----------7--------|
A||--7-----------5-----------|
E||--------------------------|

    Am          Em
e|--------------------------|
B|-----------5-----------8--|
G|--------5-----------9-----|
D|-----7-----------9--------|
A|--------------7-----------|
E|--5-----------------------|

    C           D
e|-----------3--------------|
B|--------5--------------7--|
G|-----5--------------7-----|
D|-----------------7--------|
A|--3-----------5-----------|
E|--------------------------|

    Em?         Em
e|--------------------------|
B|-----------7-----------8--|
G|--------9-----------9-----|
D|-----9-----------9--------|
A|--7-----------7-----------|
E|--------------------------|

(play the INTRO again except for the last bay)

    Em?         Em
e|--------------------------||
B|--7h8---------8-----------||
G|--9-----------9-----------||
D|--9-----------9-----------||
A|--7-----------7-----------||
E|--------------------------||


-VERSE I: "I can see how you... "


 Em	D	Am	Em

 C	D	Em	Em?

 "Working late at... "

 Em	D	Am	Em

 C	D

    C?          C
e|-----------5-----------3--||
B|--------------------5-----||
G|--------5--------5--------||
D|-----5--------------------||
A|--3-----------3-----------||
E|--------------------------||

-BRIDGE: "Sometimes Im wondering... "

     B?          Em
e||--2--------2--------------|
B||--4-----4-----8--------8--|
G||--4--4--------9-----9-----|
D||--------------9--9--------|
A||--------------7-----------|
E||--2-----------------------|

     C
e|-----------------------------|
B|---8---------8--7----8--7----|
G|---9------9--------5------5--|
D|--10--10---------------------|
A|-----------------------------|
E|---8-------------------------|

 "You cant be acting like my... "

    D           Em
e|--------------------------|
B|--7--------7--8--------8--|
G|--7-----7-----9-----9-----|
D|--7--7--------9--9--------|
A|--5-----------7-----------|
E|--------------------------|

     C
e|-----------------------------|
B|---8---------8--7----8--7-5--|
G|---9------9--------5---------|
D|--10--10---------------------|
A|-----------------------------|
E|---8-------------------------|

 "I see your beautifull smile... "

    D           Em
e|--------------------------|
B|--7--------7--8--------8--|
G|--7-----7-----9-----9-----|
D|--7--7--------9--9--------|
A|--5-----------7-----------|
E|--------------------------|

     C            Am
e|----------------5--------5--|
B|---8---------8--5-----5-----|
G|---9------9-----5--5--------|
D|--10--10--------------------|
A|----------------------------|
E|---8------------5-----------|

 "Reflections of me in... "

    D           Em
e|--------------------------|
B|--7--------7--8--------8--|
G|--7-----7-----9-----9-----|
D|--7--7--------9--9--------|
A|--5-----------7-----------|
E|--------------------------|

     C
e|----------------|
B|---8---------8--|
G|---9------9-----|
D|--10--10--------|
A|----------------|
E|---8------------|


e|----------------||
B|---8----7-------||
G|---9----7-------||
D|--10------------||
A|----------------||
E|---8------------||
   "Oh,   please"


-CHORUS: "Talk to me... "


     C   D   Em
e||------------------|
B||--5---7---8-------|
G||--5---7---9-------|
D||--5---7---9-------|
A||--3---5---7-------|
E||------------------|

     C   D    Em?
e|--------------------|
B|---8---7---10--7----|
G|---9---7----9--7----|
D|--10---7----9-------|
A|-------5----7-------|
E|---8----------------|

    C   D   B   Em
e|------------------|
B|--5---7---7---8---|
G|--5---7---8---9---|
D|--5---7---9---9---|
A|--3---5-------7---|
E|----------7-------|

     C   D   Em
e|-------------------||
B|---8---7---8-------||
G|---9---7---9-------||
D|--10---7---9-------||
A|-------5---7-------||
E|---8---------------||

 C    D  Em
"Talk to me,

 C    D    Em?  ?
 Show some pi - ty

 C         D     B          Em
 You touch me in many, many ways

     C       D         Em
 But I'm shy can't you see"



-VERSE II: "Obsessed by you... "


(GUITAR ENTERS)

     Em          D
e||--7-----------5-----------|
B||-----8-----8-----7-----7--|
G||--------9-----------7-----|
D||--------------0-----------|
A||--7-----------------------|
E||--------------------------|

    Am          Em
e|--5-----------7-----------|
B|-----5-----5-----8-----8--|
G|--------5-----------9-----|
D|--------------------------|
A|--0-----------7-----------|
E|--------------------------|

 "I write on paper... "

    C           D
e|--3-----------5-----------|
B|-----5-----5-----7-----7--|
G|--------5-----------7-----|
D|--------------0-----------|
A|--3-----------------------|
E|--------------------------|

    Em          EM       ?
e|--7-----------7-----------|
B|-----8-----8-----8-----7--|
G|--------9-----------9-----|
D|--------------------------|
A|--7-----------7-----------|
E|--------------------------|

 "Still I sit in... "

    Em          D
e|--7-----------5-----------|
B|-----8-----8-----7-----7--|
G|--------9-----------7-----|
D|--------------0-----------|
A|--7-----------------------|
E|--------------------------|

    Am          Em
e|--5-----------7-----------|
B|-----5-----5-----8-----8--|
G|--------5-----------9-----|
D|--------------------------|
A|--0-----------7-----------|
E|--------------------------|

 "Tuen my head and... "

    C           D
e|--------------------------|
B|--5-----------7-----------|
G|-----5-----5-----7-----7--|
D|--------5-----------7-----|
A|--3-----------5-----------|
E|--------------------------|

    C           D
e|--3-----------5-----------||
B|-----5-----5-----7-----7--||
G|--------5-----------7-----||
D|--------------------------||
A|--3-----------5-----------||
E|--------------------------||


-BRIDGE:


     D           Em
e||--------------------------|
B||--7-----------8-----------|
G||-----7-----7-----9-----9--|
D||--------7-----------9-----|
A||--5-----------7-----------|
E||--------------------------|

    C           /
e|--3-----------3-----------|
B|-----5-----5-----5-----5--|
G|--------5-----------5-----|
D|--------------------------|
A|--3-----------------------|
E|--------------------------|

    D           Em
e|--------------------------|
B|--7-----------8-----------|
G|-----7-----7-----9-----9--|
D|--------7-----------9-----|
A|--5-----------7-----------|
E|--------------------------|

    C           /
e|--3-----------3-----------|
B|-----5-----5-----5-----5--|
G|--------5-----------5-----|
D|--------------------------|
A|--3-----------------------|
E|--------------------------|

    D           Em
e|--------------------------|
B|--7-----------8-----------|
G|-----7-----7-----9-----9--|
D|--------7-----------9-----|
A|--5-----------7-----------|
E|--------------------------|

    C           Am
e|--3-----------5-----------|
B|-----5-----5-----5-----5--|
G|--------------------5-----|
D|--------------------------|
A|--3-----2-----0-----------|
E|--------------------------|

    D           Em
e|--5-----------7-----------|
B|-----7-----7-----8-----8--|
G|--------7-----------9-----|
D|--0-----------------------|
A|--------------7-----------|
E|--------------------------|

    C?
e|--8-----------8-/-10--12--||
B|-----8-----8--8-/-10--12--||
G|--------9-----0-----------||
D|--------------------------||
A|--------------------------||
E|--8-----------------------||


-CHORUS: (KEYBOARD)


 C    D  Em
"Talk to me,

 C    D    Em?  ?
 Show some pi - ty

 C         D     B          Em
 You touch me in many, many ways

     C       D         Em
 But I'm shy can't you see"


	D	E
       "I       see...


-INTERLUDE: "Cant have you... "


   Am      F          G
|| /   /   /   /   |  /  /  /  /  |
  (1 & 2 & 3 & 4 &)

   Am    F        D
|  /  /  /  /  |  /  /  /  /  |


   Am    F        G
|  /  /  /  /  |  /  /  /  /  |

   Am    F        D
|  /  /  /  /  |  /  /  /  /  |

   Em
|  /  /  /  /  ||


-SOLO:


e||---------7--8--5h7p5---------------|
B||--5-7-8--------------7---7/8-7-5---|
G||-----------------------------------|
D||-----------------------------------|
A||-----------------------------------|
E||-----------------------------------|

e|--8--7h8p7------------|
B|-----------7--7-7/8---|
G|----------------------|
D|----------------------|
A|----------------------|
E|----------------------|

e|------7------5------5p0---|
B|--7/8----8\7----5/8-------|
G|--------------------------|
D|--------------------------|
A|--------------------------|
E|--------------------------|

(THE FAST PART)

e|------------------------|
B|-------7-8-7-10---------|
G|--/7-9------------7--8--|
D|------------------------|
A|------------------------|
E|------------------------|

e|----------------------|
B|---------8-10-12-12---|
G|--8-9-11--------------|
D|----------------------|
A|----------------------|
E|----------------------|

e|-------7-8-9-10---------------|
B|----8------------10/11-10-8---|
G|--9---------------------------|
D|------------------------------|
A|------------------------------|
E|------------------------------|

e|-------------------------------||
B|--10--10--7--/10--10--/12--12--||
G|-------------------------------||
D|-------------------------------||
A|-------------------------------||
E|-------------------------------||


-BRIDGE:


    B     Em       C
||  /  /  /  /  |  /  /  /  /  |

   D     Em       C
|  /  /  /  /  |  /  /  /  /  |

   D     Em       C     Am
|  /  /  /  /  |  /  /  /  /  |


   D     Em       C     D  Em
|  /  /  /  /  |  /  /  /  /  ||

-CHORUS:

    C  D  Em
||  /  /  /  /  | (x2)

   C  D  B  Em
|  /  /  /  /  |

   C  D  Em
|  /  /  /  /  ||


-CORUS: (KEYBOARD ONLY)	 


 C    D  Em
"Talk to me,

 C    D    Em?  ?
 Show some pi - ty

 C         D     B          Em
 You touch me in many, many ways

     C       D        
 But I'm shy can't you

 C       D 
 I'm shy can't you

 C       D         Em
 I'm shy can't you see"


		 -END-

	     hope I helped

            
            
Suggest correction
Creating personal tab
Creating personal tab
You can edit any tab online and save it as your Personal.

You can edit, replace or remove any tab part or add personal notes – all changes will be seen only by you.

Personal tabs can be accessed anytime from any device, even offline.
Learn more »
comments
print report bad tab
2 comments total.
0 reply
kmile16 21 May 14, 2007 04:23 PM

hey your tab is very good but you write that you should do a "half-step down"...well, when I play your song only by playing on the 8 instead of the 9...it does it write...so you should not half to do the half step down...?? if its possible you can rewrite it!! nice work man!

+1 reply
melli1992 52 Jun 29, 2008 10:00 AM

good job =) although it is not a 'pain in the ass' as you call it, and kmile16 is right, you should rewrite it =)

guest
You may want to rate the tab now too:
select rating
Wanna post a correction for this tab? Suggest correction