Oops, an error
Loading. Please wait.

Psalm 91 chords

7,888 views 1 this week
no commentswrite comment
1 2 3 4 5
3 more votes to show rating
add to favorites
×
Save as Personal and add changes to this tab that will be seen only by you. Learn more ›
×
You can save this tab as Personal to edit and correct it or add notes. All changes will be seen only by you. Learn more »
launch autoscroll
font size
0
reset
transpose
0
reset
display chords
guitar tuner
edit
Autoscroll
slow
fast
+/-
esc
set tempo
stop
Strumming
There is no strumming pattern for this song yet. and get +5 IQ
[Capo 1]

  D    A        E             D
You are the defender of the weak
  D    A        E         D
You are near to those in need
  D    A      E                 D
You are a peace to those who grieve
        D   A   E     D
My God you are so many things

                        A
You are my refuge and strength
                      E
You are my hiding place
                           D
You hear my voice when I call
                         A
Before I say anything at all
                     A
In desperate need I cry
             E
Only to realize
                          D
The hand that heals the sick
                       A
Has my name written on it

  D    A            E       D
You are the forgiver of my past
  D   A           E             D
You are the pure and spotless lamb
  D    A                         E         D
You are the balm that heals the wounds I have
       D    A   E   D
My God You are so many things

[Intro and Chorus]
(notes relative to nut, not capo)

(w/ some distortion and delay)
e|----10---10---10---10-----------|
B|------11---11----11---11--------|
G|--------------------------------|
D|--------------------------------|
A|--------------------------------|
E|--------------------------------|

e|----13--13--13--13--13----15--15--15--15--15----------------------|
B|------------------------------------------------------------------|
G|------15--15--15--15--15----15--15--15--15--15--------------------|
D|------------------------------------------------------------------|
A|------------------------------------------------------------------|
E|------------------------------------------------------------------|

            
            
Suggest correction
Creating personal tab
Creating personal tab
You can edit any tab online and save it as your Personal.

You can edit, replace or remove any tab part or add personal notes – all changes will be seen only by you.

Personal tabs can be accessed anytime from any device, even offline.
Learn more »
Give kudos to tab author, rate the tab!
1 2 3 4 5
comments
print report bad tab
guest
You may want to rate the tab now too:
select rating
Wanna post a correction for this tab? Suggest correction