Oops, an error
Loading. Please wait.

Fuck The Shit bass

version 1
version 1

Whole song

Interactive

865 views 1 this week
3 commentsread comments
1 2 3 4 5
1 last vote to show rating
add to favorites
×
Save as Personal and add changes to this tab that will be seen only by you. Learn more ›
×
You can save this tab as Personal to edit and correct it or add notes. All changes will be seen only by you. Learn more »
launch autoscroll
font size
0
reset
guitar tuner
edit
Autoscroll
slow
fast
+/-
esc
set tempo
stop
Song: Fuck The Shit
Album: Sons Of Butcher
Band: Sons Of Butcher
Tabbed By: Masterbasser36


Main Riff (Come In After Guitar Plays Twice)(Repeated)       
G|------------------------|
D|------------------------| 
A|-6------------------4---|
E|----6-8--9-9--0-2-4-----|


Bridge                                                    x2
|--------------------------------------------------------|
|--------------------------------------------------------|
|----------------------------6-6-------------------------|
|-6-6--8-8-8--9-9--9-9--2-2-------8-8-8--9-8--9-8--6-6---|


Main Riff (Repeated)           
G|------------------------|
D|------------------------| 
A|-6------------------4---|
E|----6-8--9-9--0-2-4-----|


Ending
G|-----------------|
D|-----------------| 
A|-6--6--6--6--6---|
E|-----------------|


Great, Catchy Song!
Comment if you find any mistakes.
Please Rate!



            
            
Suggest correction
Creating personal tab
Creating personal tab
You can edit any tab online and save it as your Personal.

You can edit, replace or remove any tab part or add personal notes – all changes will be seen only by you.

Personal tabs can be accessed anytime from any device, even offline.
Learn more »
Give kudos to tab author, rate the tab!
1 2 3 4 5
comments
print report bad tab
3 comments total.
0 reply
n0r3mac 32 Jan 01, 2008 06:24 PM

I find it easier to
play

-----
1-----
---1--3--4-4-----4
-----0--2--4---


haha ure name is almost masturbater

0 reply
n0r3mac 32 Jan 01, 2008 06:25 PM

-----
1-----
---1--3--4-4-----4
-----0--2--4---

*Sorry
about that

0 reply
thepusher 41 Jun 10, 2008 01:26 AM

dude I saw SoB and they played Fuck The Shit twice, the fist time this little 5' chick moshed so hard that her lip ring got torn out

guest
You may want to rate the tab now too:
select rating
Wanna post a correction for this tab? Suggest correction