Oops, an error
Loading. Please wait.

Nolsey solo tab

version 1
version 1

Solo

Whole song

1,973 views 21 this week
no commentswrite comment
1 2 3 4 5
x 4
add to favorites
×
Save as Personal and add changes to this tab that will be seen only by you. Learn more ›
×
You can save this tab as Personal to edit and correct it or add notes. All changes will be seen only by you. Learn more »
launch autoscroll
font size
0
reset
how to read this tab
guitar tuner
edit
Autoscroll
slow
fast
+/-
esc
set tempo
stop
-------------------------------------------------------------------------------
                             NOLSEY - Sorority Noise
-------------------------------------------------------------------------------
Tabbed by: Rome Hearn
E-mail: counterpart.2001@gmail.com

Tuning: Drop C#. Yeah, I know that you could play this in standard, but God damn it, Sorority Noise ALWAYS
plays in drop C#. Any time where you think they're playing in standard, they're just using a capo. If you
really insist on playing in standard, just go one fret down for each note.

This tab contains the lead guitar part for the section right after "I've grown so dark I can barely sleep," 
it's always been my dream to be empty," and the alternative form of the solo is the part after "You'll always
be the reason I stay clean."

The first time you play it, you end it with a sustained 10th fret on the B string.
The second time, it ends where the tab ends.

d#|------------------------------------10---10---------10h12------------------|
A#|10------------------------------------------------------------10-----------|
F#|------------12---10------10------------------------------------------------|
C#|---------------------------------------------------------------------------|
G#|---------------------------------------------------------------------------|
C#|---------------------------------------------------------------------------|

d#|10---10---------10h12------------------------------------------------------|
A#|--------------------------10-------10---11---------10------------------9---|
F#|--------------------------------------------------------12---11---12-------|
C#|---------------------------------------------------------------------------|
G#|---------------------------------------------------------------------------|
C#|---------------------------------------------------------------------------|

d#|------------------------------------10---10---------10h12------------------|
A#|10----------------------------10------------------------------10-----------|
F#|------------12---10------12------------------------------------------------|
C#|---------------------------------------------------------------------------|
G#|---------------------------------------------------------------------------|
C#|---------------------------------------------------------------------------|

d#|10---10---------10h12------------------------------------------------------|
A#|--------------------------10-------10---11---------10------------------9---|
F#|--------------------------------------------------------12---11---12-------|
C#|---------------------------------------------------------------------------|
G#|---------------------------------------------------------------------------|
C#|---------------------------------------------------------------------------|

For the alternative form at the end, you use the same notes, you just sort-of swing the rhythm. Everything is
a triplet except for the last couple notes. Just play around with it, and you'll get it. I hope the tab
helped you.

************************************

| /   slide up
| \   slide down
| h   hammer-on
| p   pull-off
| ~   vibrato
| +   harmonic
| x   Mute note
| b   Bend
| pb  Pre-bend
| br  Bend release
| pbr Pre-bend release
| brb Bend release bend

************************************

            
            
Suggest correction
Creating personal tab
Creating personal tab
You can edit any tab online and save it as your Personal.

You can edit, replace or remove any tab part or add personal notes – all changes will be seen only by you.

Personal tabs can be accessed anytime from any device, even offline.
Learn more »
comments
print report bad tab
guest
You may want to rate the tab now too:
select rating
Wanna post a correction for this tab? Suggest correction