Oops, an error
Loading. Please wait.

All Your Lies tab

241 views 1 this week
1 commentread comment
1 2 3 4 5
1 last vote to show rating
add to favorites
×
Save as Personal and add changes to this tab that will be seen only by you. Learn more ›
×
You can save this tab as Personal to edit and correct it or add notes. All changes will be seen only by you. Learn more »
launch autoscroll
font size
0
reset
how to read this tab
guitar tuner
edit
Autoscroll
slow
fast
+/-
esc
set tempo
stop
Soundgarden - All Your Lies
From the album Ultramega OK

I had help with the 1st solo from someone on Reddit but it isn't complete.
If you have any more info on the 1st or 2nd solo, please email me at xdarknessrulerx@gmail.com

You won't need a lot of these for this song, but this key is always useful

PM - palm mute                  /  - slide up to
\  - slide down to              ~  - vibrato
h  - hammer on                  b  - bend
p  - pull off                   Suffixes for bend
ph - pinch harmonic             f - full bend    h - half bend
*  - see comment                r - release      t - tap bend
X  - (fretting hand mute)       ~ - vibrato bend
@  - slight palm mute           () - ghost note, sustained note
^ - bend


Intro

e|-----------------------------5-5-|
b|-----------------------------5-5-|
g|-----------------------------2-2-|
d|-2-3-4-2-3-4-2-3-4-2-3-4-3-2-2-2-|
a|-2-2-2-2-2-2-2-2-2-2-2-2-2-2-0-0-|
E|---------------------------------|


Verse
(All your fears are lies...)
(Verse variation 1)
e|-----------------------------5-5-5-5-|
b|-----------------------------5-5-5-5-|
g|-----------------------------2-2-2-2-|
d|-2-3-4-2-3-4-2-3-4-2-3-4-3-2-2-2-2-2-|
a|-2-2-2-2-2-2-2-2-2-2-2-2-2-2-0-0-0-0-|
E|-------------------------------------|

(Verse variation 2)
e|-----------------------------7----|
b|-----------------------------7----|
g|----------------------------------|
d|-2-3-4-2-3-4-2-3-4-2-3-4-3-2------|
a|-2-2-2-2-2-2-2-2-2-2-2-2-2-2------|
E|----------------------------------|

(Verse variation 3)
e|-------------------------5-5-5-5-|
b|-------------2-3-4-2-2---5-5-5-5-|
g|-------2-3-4-2-2-2-2-2---2-2-2-2-|
d|-2-3-4-2-2-2-------------2-2-2-2-|
a|-2-2-2-------------------0-0-0-0-|
E|---------------------------------|

(Verse variation 4)
e|----------------------7------|
b|-------------2-3-4-2--7------|
g|-------2-3-4-2-2-2-2---------|
d|-2-3-4-2-2-2-----------------|
a|-2-2-2-----------------------|
E|-----------------------------|

(Verse variation 5)
e|-----------------------------5-5-5/7-|
b|-----------------------------5-5-5/7-|
g|-----------------------------2-2-2---|
d|-2-3-4-2-3-4-2-3-4-2-3-4-3-2-2-2-2---|
a|-2-2-2-2-2-2-2-2-2-2-2-2-2-2-0-0-0---|
E|-------------------------------------|


Chorus

e|-----------------------------|------|------|
B|-----------------------------|------|------|
G|--------2--2-x-5--5-x-4--4-x-|------|------|
D|-4--4-x-2--2-x-5--5-x-4--4-x-|------|------|
A|-4--4-x-0--0-x-3--3-x-2--2-x-|------|------|
E|-2--2-x----------------------|------|------|

Before Chris starts singing again, you play the part above

(Helpless, falling, limping, crawling...)

e|-----------------------------|------|------|
B|-----------------------------|------|------|
G|--------2--2-x-5--5-x-4--4-x-|------|------|
D|-4--4-x-2--2-x-5--5-x-4--4-x-|------|------|
A|-4--4-x-0--0-x-3--3-x-2--2-x-|------|------|
E|-2--2-x----------------------|------|------|

Play this same part above when he sings again, but palm mute the chords now.

(Loosely buying your cheating and lying...)

e|-------------------------------------------|
B|-------------------------------------------|
G|---------2-2-2-2-5-5-5-5-4-4-4-4-----------|
D|-4-4-4-4-2-2-2-2-5-5-5-5-4-4-4-4-----------|
A|-4-4-4-4-0-0-0-0-3-3-3-3-2-2-2-2-----------|
E|-2-2-2-2-----------------------------------|


Post chorus riff

e|-------------------------------------------------|
b|-------------------------------------------------|
g|-------------------------------------------------|
d|-------------------------------------------------|
a|---5---------------3-----5---------3-------------|
E|-7---7-6-5-4-----3---5-4---4-3---5---5-4-3-2-----|


(Part of the) 1st solo

e|-------------------------5--|2h5p2--5p4p2--2h5p2--5p4p2--|
b|----------------------------|----------------------------|
g|----------------------------|----------------------------|
d|----------------------------|----------------------------|
a|----------------------------|----------------------------|
E|----------------------------|----------------------------|

e|2h5p2--5p4p2--2h5p2-5p4p2---|---2------------------------|
b|----------------------------|5-----5--2h5p2--5p3p2--2h5p2|
g|----------------------------|----------------------------|
d|----------------------------|----------------------------|
a|----------------------------|----------------------------|
E|----------------------------|----------------------------|

e|---------4----4h5--p4--4----|-5--4--2h4p2--4b5r-4--2h4p2-|
b|--5p3p2--5b7--5--------5----|-5--5--3------5b6r-5--------|
g|----------------------------|----------------------------|
d|----------------------------|----------------------------|
a|----------------------------|----------------------------|
E|----------------------------|----------------------------|

e|--4--5--7---5h7p5--9p7p5----|----------------------------|
b|----------------------------|9p7p5-5h7p5--7--5b7---------|
g|----------------------------|----------------------------|
d|----------------------------|----------------------------|
a|----------------------------|----------------------------|
E|----------------------------|----------------------------|

(Solo isn't complete yet)

After solo

e|---------------------|
b|-2^---5^---8^---7^---|
g|-4^---7^--10^---9^---|
d|---------------------|
a|---------------------|
E|---------------------|

(Another solo is played after this, but I haven't figured it out yet either.)


End Riff

e|-------------------------------------------------|
b|-------------------------------------------------|
g|-------------------------------------------------|
d|-------------------------------------------------|
a|---5---------------3-----5---------3-------------|
E|-7---7-6-5-4-----3---5-4---4-3---5---5-4-3-2-----|

            
            
Suggest correction
Creating personal tab
Creating personal tab
You can edit any tab online and save it as your Personal.

You can edit, replace or remove any tab part or add personal notes – all changes will be seen only by you.

Personal tabs can be accessed anytime from any device, even offline.
Learn more »
Give kudos to tab author, rate the tab!
1 2 3 4 5
comments
print report bad tab
1 comment total.
0 reply
Yannman 20 Oct 15, 2017 08:12 PM

Good tab

guest
You may want to rate the tab now too:
select rating
Wanna post a correction for this tab? Suggest correction