Oops, an error
Loading. Please wait.

Burden In My Hand tab

version 1
version 1

Whole song

Interactive

28,698 views 195 this week
no commentswrite comment
1 2 3 4 5
x 7
add to favorites
×
Save as Personal and add changes to this tab that will be seen only by you. Learn more ›
×
You can save this tab as Personal to edit and correct it or add notes. All changes will be seen only by you. Learn more »
launch autoscroll
font size
0
reset
how to read this tab
guitar tuner
backing track
0:00
0:00
edit
Autoscroll
slow
fast
+/-
esc
set tempo
stop
Author
Unregistered
Tab for Soundgarden's
Burden in my hand

"Open C" tuning:
tuning low to high CGCGGe
(rhythms aren't shown, but the number of strums is about right)

[Verse]

e|-----0-0-0-0-0-0--------3-3h5p3-3---------5-5-5--3-3-3-3-3-0-0-0-0h2p0-|
G|-----0-0-0-0-0-0--------3-3h5p3-3---------5-5-5--3-3-3-3-3-0-0-0-0h2p0-|
G|-----0-0-0-0-0-0--------3-3h5p3-3---------5-5-5--3-3-3-3-3-0-0-0-0h2p0-|
C|-0-0---------------0-0-------------------------------------------------|
G|-------------------------------------3-3-------------------------------|
C|-----------------------------------------------------------------------|

[Pre-Chorus] 
Guitar 1:
e|---------3-3-3/5-5-5-----5-5-5-3-3-3-|
G|---------3-3-3/5-5-5-----5-5-5-3-3-3-|
G|---------3-3-3/5-5-5-----5-5-5-3-3-3-| repeat once
C|---------3-3-3/5-5-5-----5-5-5-3-3-3-|
G|---------3-3-3/5-5-5-----5-5-5-3-3-3-|
C|-------------------------------------|

Guitar 2:
e|--------|
G|--------|
G|--------| go into chords also
C|--------|
G|-3h5h3p0|
C|--------|

Guitar 1 & 2:
e|-5-5-5-3-3----5-5-3-3h5p3--5-5-3h5p3--5-5-5p3--3h5p3-|
G|-5-5-5-3-3----5-5-3-3h5p3--5-5-3h5p3--5-5-5p3--3h5p3-|
G|-5-5-5-3-3----5-5-3-3h5p3--5-5-3h5p3--5-5-5p3--3h5p3-|
C|-5-5-5-3-3----5-5-3-3-3-3--5-5-3-3-3--5-5------3-3-3-|
G|-5-5-5-3-3----5-5-3-3-3-3--5-5-3-3-3--5-5------3-3-3-|
C|-----------------------------------------------------|

[Chorus]
(strum amt.indicated above chord) Rhythm is mainly 16th notes, 
some 32nd's some 8th's maybe. figure it out with the CD
   8x   8x   3x  5x
e|-12---10---8---6---10-6-6-5----|
G|-12---10---8---6---10-6-6-5----|
G|-12---10---8---6---10-6-6-5----|
C|-12---10---8---6---10-6-6-5----|
G|-12---10---8---6---10-6-6-5----|
C|-12---10---8---6---10-6-6-5----|

[Bridge]

e|-0-2-3---3h5p3---3h5p3---3-5-6---0-2-3---3h5p3-10-6-6-5----|
G|-0-2-3---3h5p3---3h5p3---3-5-6---0-2-3---3h5p3-10-6-6-5----|
G|-0-2-3---3h5p3---3h5p3---3-5-6---0-2-3---3h5p3-10-6-6-5----|
C|-----------------------------------------------10-6-6-5----|
G|-----------------------------------------------10-6-6-5----|
C|-----------------------------------------------10-6-6-5----|

************************************

| h   Hammer-on
| p   Pull-off
| /   Slide up

************************************

            
            
Suggest correction
Creating personal tab
Creating personal tab
You can edit any tab online and save it as your Personal.

You can edit, replace or remove any tab part or add personal notes – all changes will be seen only by you.

Personal tabs can be accessed anytime from any device, even offline.
Learn more »
comments
print report bad tab
guest
Wanna post a correction for this tab? Suggest correction