Oops, an error
Loading. Please wait.

Jealousy tab

version 2
version 2

Whole song

740 views 1 this week
11 commentsread comments
1 2 3 4 5
3 more votes to show rating
add to favorites
×
Save as Personal and add changes to this tab that will be seen only by you. Learn more ›
×
You can save this tab as Personal to edit and correct it or add notes. All changes will be seen only by you. Learn more »
launch autoscroll
font size
0
reset
how to read this tab
guitar tuner
edit
Autoscroll
slow
fast
+/-
esc
set tempo
stop
Author
Difficulty
Artist:Sparkadia
Song:Jealousy
Album: Postcards

Intro: Bass guitar on e string
e-22222222--44444444-44444444--66666666--22222222--44444444-44444444--6666889 repeat as 
times

Then guitar comes in playin chorus riff

   F# strummed 8 times   G# strummed 8x   A#m
e--9                     13               13
b--11                    13               14
g--11                    13               15
d--11                    13               15
a--9                     11               13
e--x                     x                x


Verse: just bass riff

Chorus: Same guitar and bass

Bridge:
|-------------------------------------------------------------|
|-------------------------------------------------------------|
|-6------6-------6-------6-------5------5-------5-------5-----|
|----8-------8-------8-------8------6-------6-------6-------6-|
|-------------------------------------------------------------|
|-------------------------------------------------------------|

|-------------------------------------------------------------|
|-------------------------------------------------------------|
|-6------6-------8-------6-------5------5-------5-------5-----|
|----8-------8-------8-------8------6-------6-------6-------6-|
|-------------------------------------------------------------|
|-------------------------------------------------------------|

|-------------------------------------------------------------|
|-------------------------------------------------------------|
|-3------3-------3-------3-------5------6-------8-------6-----|
|----4-------4-------4-------4------6-------6-------6-------6-|
|-------------------------------------------------------------|
|-------------------------------------------------------------|

|-------------------------------------------------------------|
|-------------------------------------------------------------|
|-3------3-------3-------3-------2------2-------2-------2-----|
|----4-------4-------4-------4------3-------3-------3-------3-|
|-------------------------------------------------------------|
|-------------------------------------------------------------|

Chorus: same old

Outro: same bass


Lyrics:
I can't sleep, I can't eat
I can't leave till I have my peace
No more fights, no more wars
No more deals to settle our scores
I won't hide, I won't go
Become someone you used to know
'Cause there's a little bit of me
In a little of you
Don't deny what you know is true

Jealousy, look what it's done to you
Look what it's done to me
Jealousy

I've been there, on the other side
Trying to get her to change her mind
Hanging out, dropping in
Trying to revive what had once had been alive
I know exactly how it goes
You think you can change the girl you used to know
There's a little bit of me
In a little of you
Don't deny what you know is true

Jealousy, look what it's done to you
Look what it's done to me
Jealousy

If you don't leave it
You'll never be free of it
If you don't leave it
You'll never be free of it
If you don't leave it
You'll never be free of it
It will eat you up
and spit you out
When you try to get to her
She'll never hear you even when you shout

Jealousy, look what it's done to you
Look what it's done to me
Jealousy, I know what lies below
I already knew this long ago
Jealousy

And there u have it

Not perfect then email me at maroispear@hotmail.com or comment/correction down the 
If it is perfect (probs not) rate 5 stars and thanks for reading

            
            
Suggest correction
Creating personal tab
Creating personal tab
You can edit any tab online and save it as your Personal.

You can edit, replace or remove any tab part or add personal notes – all changes will be seen only by you.

Personal tabs can be accessed anytime from any device, even offline.
Learn more »
Give kudos to tab author, rate the tab!
1 2 3 4 5
comments
print report bad tab
11 comments total. Showing first comments.
-1 reply
Chickendirt 103 Aug 26, 2011 03:55 AM

soz everybody, found a mistake
it suppose to be in the bridge

g---6---6---6---6
d-8---8---8---8--

g---6---6---6---6
d-8---8---8---8--

-1 reply
Antaios 60 Oct 15, 2015 12:31 PM, edited at 04:32 pm

It's missing a part in the bridge, it's not complete, and it isn't perfect.

-1 reply
Chickendirt 103 Jan 14, 2016 10:46 PM

read above comment kid

guest
You may want to rate the tab now too:
select rating
Wanna post a correction for this tab? Suggest correction