Oops, an error
Loading. Please wait.

Skeleton tab

2,114 views 1 this week
no commentswrite comment
1 2 3 4 5
2 more votes to show rating
add to favorites
×
Save as Personal and add changes to this tab that will be seen only by you. Learn more ›
×
You can save this tab as Personal to edit and correct it or add notes. All changes will be seen only by you. Learn more »
launch autoscroll
font size
0
reset
how to read this tab
guitar tuner
edit
Autoscroll
slow
fast
+/-
esc
set tempo
stop
-------------------------------------------------------------------------------
			     Skeleton - Sparks the Rescue
-------------------------------------------------------------------------------
Tabbed by:AcousticShred
Email:jasonmwillette@yahoo.com

Tuning:Drop D

Another Sparks song I've decided to tab. It's a really good one,
vocals on this one are beautiful. Nice little solo-riff thing too.




Intro

Guitar I
e|---------------------------------------------------------------------------|
B|---------------------------------------------------------------------------|
G|-6-6-6--8--10-6-6--8~--6--6-6-6-10-6--6-6-8-10-----------------------------|
D|-x-x-x--x--x--x-x--x---x--x-x-x-x--x--x-x-x-x------------------------------|
A|-4-4-4--6--8--4-4--6~--4--4-4-6-8--4--4-4-6-8------------------------------|
D|---------------------------------------------------------------------------|

Guitar II
e|---------------------------------------------------------------------------|
B|---------------------------------------------------------------------------|
G|---------------------------------------------------------------------------|
D|-8-8-8\x--6-6--6-6--4-4-4-4-4-4-4-4-4-4-4-4-4-4-4-4------------------------|
A|-8-8-8\x--6-6--6-6--4-4-4-4-4-4-4-4-4-4-4-4-4-4-4-4------------------------|
D|-8-8-8\x--6-6--6-6--4-4-4-4-4-4-4-4-4-4-4-4-4-4-4-4------------------------|



e|---------------------------------------------------------------------------|
B|---------------------------------------------------------------------------|
G|-6-6-6--8--10-6-6--8~--6--6-6-6-10-6--6-6-8-10-----------------------------|
D|-x-x-x--x--x--x-x--x---x--x-x-x-x--x--x-x-x-x------------------------------|
A|-4-4-4--6--8--4-4--6~--4--4-4-6-8--4--4-4-6-8------------------------------|
D|---------------------------------------------------------------------------|

e|---------------------------------------------------------------------------|
B|---------------------------------------------------------------------------|
G|---------------------------------------------------------------------------|
D|-8-8-8\x--6-6--6-6--4-4-4-4-4-4-4-4-4-4-4-4-4-4-4-4------------------------|
A|-8-8-8\x--6-6--6-6--4-4-4-4-4-4-4-4-4-4-4-4-4-4-4-4------------------------|
D|-8-8-8\x--6-6--6-6--4-4-4-4-4-4-4-4-4-4-4-4-4-4-4-4------------------------|


Verse I

e|---------------------------------------------------------------------------|
B|---------------------------------------------------------------------------|
G|-6-----------------------------------------------6-6-6-6-6-6-6-6-----------|
D|-6-----------------------------------------------6-6-6-6-6-6-6-6-----------|
A|-4-----------------------------------------------4-4-4-4-4-4-4-4-----------|
D|---------------------------------------------------------------------------|
								      ~~~~~~~p.m.~~~~~~~

e|---------------------------------------------------------------------------|
B|---------------------------------------------------------------------------|
G|-6-6-6-6-6-6-6-6-6-6-6-6-6-6-6-6-6-6-6-6-6-6-6-6-6-6-6-6-6-6-6-6-----------|
D|-6-6-6-6-6-6-6-6-6-6-6-6-6-6-6-6-6-6-6-6-6-6-6-6-6-6-6-6-6-6-6-6-----------|
A|-4-4-4-4-4-4-4-4-4-4-4-4-4-4-4-4-4-4-4-4-4-4-4-4-4-4-4-4-4-4-4-4-----------|
D|---------------------------------------------------------------------------|
  ~~~~~~~~~~~~~~~~~~~~~~~~~~~~~~p.m.~~~~~~~~~~~~~~~~~~~~~~~~~~~~~~



e|---------------------------------------------------------------------------|
B|---------------------------------------------------------------------------|
G|---------------------------------------------------------------------------|
D|-4-----------------------------------------------4-4-4-4-4-4-4-4-----------|
A|-4-----------------------------------------------4-4-4-4-4-4-4-4-----------|
D|-4-----------------------------------------------4-4-4-4-4-4-4-4-----------|

e|---------------------------------------------------------------------------|
B|---------------------------------------------------------------------------|
G|---------------------------------------------------------------------------|
D|-4-4-4-4-4-4-4-4-4-4-4-4-4-4-4-4-4-4-4-4-4-4-4-4-4-4-4-4-4-4-4-4-----------|
A|-4-4-4-4-4-4-4-4-4-4-4-4-4-4-4-4-4-4-4-4-4-4-4-4-4-4-4-4-4-4-4-4-----------|
D|-4-4-4-4-4-4-4-4-4-4-4-4-4-4-4-4-4-4-4-4-4-4-4-4-4-4-4-4-4-4-4-4-----------|
  ~~~~~~~~~~~~~~~~~~~~~~~~~~~~~~p.m.~~~~~~~~~~~~~~~~~~~~~~~~~~~~~~



e|---------------------------------------------------------------------------|
B|---------------------------------------------------------------------------|
G|-6-6-5-5-6-6-5-5-6-6-5-5-6-6-5-5-6-6-5-5-6-6-5-5-6-6-5-5-6-6-5-5-----------|
D|---------------------------------------------------------------------------|
A|---------------------------------------------------------------------------|
D|---------------------------------------------------------------------------|
  ~~~~~~~~~~~~~~~~~~~~~~~~~~~~~~p.m.~~~~~~~~~~~~~~~~~~~~~~~~~~~~~~
                            start to slowly unmute ^ here 

e|---------------------------------------------------------------------------|
B|---------------------------------------------------------------------------|
G|-6-6-6-6-6-6-6-6-6-6-6-6-6-6-6-6-6-6-6-6-6-6-6-6-6-6-6-6-6-6-6-6-----------|
D|-6-6-6-6-6-6-6-6-6-6-6-6-6-6-6-6-6-6-6-6-6-6-6-6-6-6-6-6-6-6-6-6-----------|
A|-4-4-4-4-4-4-4-4-4-4-4-4-4-4-4-4-4-4-4-4-4-4-4-4-4-4-4-4-4-4-4-4-----------|
D|---------------------------------------------------------------------------|
  ~~~~~~~~~~~~~~~~~~~~~~~~~~~~~~p.m.~~~~~~~~~~~~~~~~~~~~~~~~~~~~~~



e|---------------------------------------------------------------------------|
B|---------------------------------------------------------------------------|
G|---------------------------------------------------------------------------|
D|-6-6-4-4-6-6-4-4-6-6-4-4-6-6-4-4-6-6-4-4-6-6-4-4-6-------------------------|
A|---------------------------------------------------------------------------|
D|---------------------------------------------------------------------------|
  ~~~~~~~~~~~~~~~~~~~~~~~p.m.~~~~~~~~~~~~~~~~~~~~~~~
            start to slowly unmute ^ here

e|---------------------------------------------------------------------------|
B|---------------------------------------------------------------------------|
G|---------------------------------------------------------------------------|
D|-4-4-4-4-4-4-4-4-4-4-4-4-4-4-4-4-4-4-4-4-4-4-4-4-4-------------------------|
A|-4-4-4-4-4-4-4-4-4-4-4-4-4-4-4-4-4-4-4-4-4-4-4-4-4-------------------------|
D|-4-4-4-4-4-4-4-4-4-4-4-4-4-4-4-4-4-4-4-4-4-4-4-4-4-------------------------|
  ~~~~~~~~~~~~~~~~~~~~~~~p.m.~~~~~~~~~~~~~~~~~~~~~~~


Chorus


e|---------------------------------------------------------------------------|
B|---------------------------------------------------------------------------|
G|---------------------------------------------------------------------------|
D|-8-8-8-8-6-6-6-6-4-4-4-4-4-4-4-4-8-6-8-6--6-8-6-4-4-4-4-4-4-4-4------------|
A|-8-8-8-8-6-6-6-6-4-4-4-4-4-4-4-4-8-6-8-6--6-8-6-4-4-4-4-4-4-4-4------------|
D|-8-8-8-8-6-6-6-6-4-4-4-4-4-4-4-4-8-6-8-6--6-8-6-4-4-4-4-4-4-4-4------------|

e|---------------------------------------------------------------------------|
B|---------------------------------------------------------------------------|
G|---------------------------------------------------------------------------|
D|-8-8-8-8-6-6-6-6-4-4-4-4-4-4-4-4-8-6-8-6--6-8-6-4-4-4-4-4-4-4-4------------|
A|-8-8-8-8-6-6-6-6-4-4-4-4-4-4-4-4-8-6-8-6--6-8-6-4-4-4-4-4-4-4-4------------|
D|-8-8-8-8-6-6-6-6-4-4-4-4-4-4-4-4-8-6-8-6--6-8-6-4-4-4-4-4-4-4-4------------|
  ~~~~~~~~~~~~~~~~~~~~~~~~~~~~~p.m.~~~~~~~~~~~~~~~~~~~~~~~~~~~~~~



e|---------------------------------------------------------------------------|
B|---------------------------------------------------------------------------|
G|---------------------------------------------------------------------------|
D|-8-8-8-8-6-6-6-6-4-4-4-4-4-4-4-4-8-6-8-6--6-8-6-4-4-4-4-4-4-4-4------------|
A|-8-8-8-8-6-6-6-6-4-4-4-4-4-4-4-4-8-6-8-6--6-8-6-4-4-4-4-4-4-4-4------------|
D|-8-8-8-8-6-6-6-6-4-4-4-4-4-4-4-4-8-6-8-6--6-8-6-4-4-4-4-4-4-4-4------------|

e|---------------------------------------------------------------------------|
B|---------------------------------------------------------------------------|
G|---------------------------------------------------------------------------|
D|-8-8-8-8-6-6-6-6-4-4-4-4-4-4-4-4-8-6-8-6--6-8-6-4-4-4-4-4-4-4-4------------|
A|-8-8-8-8-6-6-6-6-4-4-4-4-4-4-4-4-8-6-8-6--6-8-6-4-4-4-4-4-4-4-4------------|
D|-8-8-8-8-6-6-6-6-4-4-4-4-4-4-4-4-8-6-8-6--6-8-6-4-4-4-4-4-4-4-4------------|
  ~~~~~~~~~~~~~~~~~~~~~~~~~~~~~p.m.~~~~~~~~~~~~~~~~~~~~~~~~~~~~~~


Post-Chorus

e|---------------------------------------------------------------------------|
B|---------------------------------------------------------------------------|
G|---------------------------------------------------------------------------|
D|-8-8-8-8-8-8-8-8-6-6-6-6-6-6-6-6-4-4-4-4-4-4-4-4-4-4-4-4-4-4-4-4-----------|
A|-8-8-8-8-8-8-8-8-6-6-6-6-6-6-6-6-4-4-4-4-4-4-4-4-4-4-4-4-4-4-4-4-----------|
D|-8-8-8-8-8-8-8-8-6-6-6-6-6-6-6-6-4-4-4-4-4-4-4-4-4-4-4-4-4-4-4-4-----------|

e|---------------------------------------------------------------------------|
B|---------------------------------------------------------------------------|
G|---------------------------------------------------------------------------|
D|-8-8-8-8-8-8-8-8-6-6-6-6-6-6-6-6-4-4-4-4-4-4-4-4-4-4-4-4-4-4-4-4-----------|
A|-8-8-8-8-8-8-8-8-6-6-6-6-6-6-6-6-4-4-4-4-4-4-4-4-4-4-4-4-4-4-4-4-----------|
D|-8-8-8-8-8-8-8-8-6-6-6-6-6-6-6-6-4-4-4-4-4-4-4-4-4-4-4-4-4-4-4-4-----------|



e|---------------------------------------------------------------------------|
B|---------------------------------------------------------------------------|
G|---------------------------------------------------------------------------|
D|-8-8-8-8-8-8-8-8-6-6-6-6-6-6-6-6-4-4-4-4-4-4-4-4-4-4-4-4-4-4-4-4-----------|
A|-8-8-8-8-8-8-8-8-6-6-6-6-6-6-6-6-4-4-4-4-4-4-4-4-4-4-4-4-4-4-4-4-----------|
D|-8-8-8-8-8-8-8-8-6-6-6-6-6-6-6-6-4-4-4-4-4-4-4-4-4-4-4-4-4-4-4-4-----------|

e|---------------------------------------------------------------------------|
B|---------------------------------------------------------------------------|
G|---------------------------------------------------------------------------|
D|-8-8-8-8-8-8-8-8-6-6-6-6-6-6-6-6-4-4-4-4-4-4-4-4-4-4-4-4-4-4-4-4-----------|
A|-8-8-8-8-8-8-8-8-6-6-6-6-6-6-6-6-4-4-4-4-4-4-4-4-4-4-4-4-4-4-4-4-----------|
D|-8-8-8-8-8-8-8-8-6-6-6-6-6-6-6-6-4-4-4-4-4-4-4-4-4-4-4-4-4-4-4-4-----------|


Verse II

e|---------------------------------------------------------------------------|
B|---------------------------------------------------------------------------|
G|-6-6-6-6-6-6-6-6-6-6-6-6-6-6-6-6-6-6-6-6-6-6-6-6-6-6-6-6-6-6-6-6-----------|
D|-6-6-6-6-6-6-6-6-6-6-6-6-6-6-6-6-6-6-6-6-6-6-6-6-6-6-6-6-6-6-6-6-----------|
A|-4-4-4-4-4-4-4-4-4-4-4-4-4-4-4-4-4-4-4-4-4-4-4-4-4-4-4-4-4-4-4-4-----------|
D|---------------------------------------------------------------------------|
  ~~~~~~~~~~~~~~~~~~~~~~~~~~~~~~p.m.~~~~~~~~~~~~~~~~~~~~~~~~~~~~~~

e|---------------------------------------------------------------------------|
B|---------------------------------------------------------------------------|
G|-6-6-6-6-6-6-6-6-6-6-6-6-6-6-6-6-6-6-6-6-6-6-6-6-6-6-6-6-6-6-6-6-----------|
D|-6-6-6-6-6-6-6-6-6-6-6-6-6-6-6-6-6-6-6-6-6-6-6-6-6-6-6-6-6-6-6-6-----------|
A|-4-4-4-4-4-4-4-4-4-4-4-4-4-4-4-4-4-4-4-4-4-4-4-4-4-4-4-4-4-4-4-4-----------|
D|---------------------------------------------------------------------------|
  ~~~~~~~~~~~~~~~~~~~~~~~~~~~~~~p.m.~~~~~~~~~~~~~~~~~~~~~~~~~~~~~~



e|---------------------------------------------------------------------------|
B|---------------------------------------------------------------------------|
G|---------------------------------------------------------------------------|
D|-4-4-4-4-4-4-4-4-4-4-4-4-4-4-4-4-4-4-4-4-4-4-4-4-4-4-4-4-4-4-4-4-----------|
A|-4-4-4-4-4-4-4-4-4-4-4-4-4-4-4-4-4-4-4-4-4-4-4-4-4-4-4-4-4-4-4-4-----------|
D|-4-4-4-4-4-4-4-4-4-4-4-4-4-4-4-4-4-4-4-4-4-4-4-4-4-4-4-4-4-4-4-4-----------|
  ~~~~~~~~~~~~~~~~~~~~~~~~~~~~~~p.m.~~~~~~~~~~~~~~~~~~~~~~~~~~~~~~
                   start to unmute ^ here

e|---------------------------------------------------------------------------|
B|---------------------------------------------------------------------------|
G|---------------------------------------------------------------------------|
D|-4-4-4-4-4-4-4-4-4-4-4-4-4-4-4-4-4-4-4-4-4-4-4-4-4-4-4-4-4-4-4-4-----------|
A|-4-4-4-4-4-4-4-4-4-4-4-4-4-4-4-4-4-4-4-4-4-4-4-4-4-4-4-4-4-4-4-4-----------|
D|-4-4-4-4-4-4-4-4-4-4-4-4-4-4-4-4-4-4-4-4-4-4-4-4-4-4-4-4-4-4-4-4-----------|
  ~~~~~~~~~~~~~~~~~~~~~~~~~~~~~~p.m.~~~~~~~~~~~~~~~~~~~~~~~~~~~~~~
                   start to unmute ^ here


e|------------------------------------------------|--------------------------|
B|------------------------------------------------|--------------------------|
G|-18-18-17-17-18-18-17-17-18-18-17-17-18-18-17-17|--------------------------|
D|------------------------------------------------|-X2-----------------------|
A|------------------------------------------------|--------------------------|
D|------------------------------------------------|--------------------------|

e|---------------------------------------------------------------------------|
B|---------------------------------------------------------------------------|
G|---------------------------------------------------------------------------|
D|-8--8--8-8--8--8-8-8--8--8-8--8--8-8---------------------------------------|
A|-8--8--8-8--8--8-8-8--8--8-8--8--8-8---------------------------------------|
D|-8--8--8-8--8--8-8-8--8--8-8--8--8-8---------------------------------------|



e|---------------------------------------------------------------------------|
B|---------------------------------------------------------------------------|
G|---------------------------------------------------------------------------|
D|-18-18-16-16-18-18-16-16-18-18-16-16-18-18-16-16-18-18-16-16-18-18-16-16-18|
A|---------------------------------------------------------------------------|
D|---------------------------------------------------------------------------|

e|---------------------------------------------------------------------------|
B|---------------------------------------------------------------------------|
G|---------------------------------------------------------------------------|
D|-4--4--4-4--4--4-4-4--4--4-4-4---------------------------------------------|
A|-4--4--4-4--4--4-4-4--4--4-4-4---------------------------------------------|
D|-4--4--4-4--4--4-4-4--4--4-4-4---------------------------------------------|


Chorus

e|---------------------------------------------------------------------------|
B|---------------------------------------------------------------------------|
G|---------------------------------------------------------------------------|
D|-8-8-8-8-6-6-6-6-4-4-4-4-4-4-4-4-8-6-8-6--6-8-6-4-4-4-4-4-4-4-4------------|
A|-8-8-8-8-6-6-6-6-4-4-4-4-4-4-4-4-8-6-8-6--6-8-6-4-4-4-4-4-4-4-4------------|
D|-8-8-8-8-6-6-6-6-4-4-4-4-4-4-4-4-8-6-8-6--6-8-6-4-4-4-4-4-4-4-4------------|

e|---------------------------------------------------------------------------|
B|---------------------------------------------------------------------------|
G|---------------------------------------------------------------------------|
D|-8-8-8-8-6-6-6-6-4-4-4-4-4-4-4-4-8-6-8-6--6-8-6-4-4-4-4-4-4-4-4------------|
A|-8-8-8-8-6-6-6-6-4-4-4-4-4-4-4-4-8-6-8-6--6-8-6-4-4-4-4-4-4-4-4------------|
D|-8-8-8-8-6-6-6-6-4-4-4-4-4-4-4-4-8-6-8-6--6-8-6-4-4-4-4-4-4-4-4------------|
  ~~~~~~~~~~~~~~~~~~~~~~~~~~~~~p.m.~~~~~~~~~~~~~~~~~~~~~~~~~~~~~~



e|---------------------------------------------------------------------------|
B|---------------------------------------------------------------------------|
G|---------------------------------------------------------------------------|
D|-8-8-8-8-6-6-6-6-4-4-4-4-4-4-4-4-8-6-8-6--6-8-6-4-4-4-4-4-4-4-4------------|
A|-8-8-8-8-6-6-6-6-4-4-4-4-4-4-4-4-8-6-8-6--6-8-6-4-4-4-4-4-4-4-4------------|
D|-8-8-8-8-6-6-6-6-4-4-4-4-4-4-4-4-8-6-8-6--6-8-6-4-4-4-4-4-4-4-4------------|

e|---------------------------------------------------------------------------|
B|---------------------------------------------------------------------------|
G|---------------------------------------------------------------------------|
D|-8-8-8-8-6-6-6-6-4-4-4-4-4-4-4-4-8-6-8-6--6-8-6-4-4-4-4-4-4-4-4------------|
A|-8-8-8-8-6-6-6-6-4-4-4-4-4-4-4-4-8-6-8-6--6-8-6-4-4-4-4-4-4-4-4------------|
D|-8-8-8-8-6-6-6-6-4-4-4-4-4-4-4-4-8-6-8-6--6-8-6-4-4-4-4-4-4-4-4------------|
  ~~~~~~~~~~~~~~~~~~~~~~~~~~~~~p.m.~~~~~~~~~~~~~~~~~~~~~~~~~~~~~~


Post-Chorus

e|---------------------------------------------------------------------------|
B|---------------------------------------------------------------------------|
G|---------------------------------------------------------------------------|
D|-8-8-8-8-8-8-8-8-6-6-6-6-6-6-6-6-4-4-4-4-4-4-4-4-4-4-4-4-4-4-4-4-----------|
A|-8-8-8-8-8-8-8-8-6-6-6-6-6-6-6-6-4-4-4-4-4-4-4-4-4-4-4-4-4-4-4-4-----------|
D|-8-8-8-8-8-8-8-8-6-6-6-6-6-6-6-6-4-4-4-4-4-4-4-4-4-4-4-4-4-4-4-4-----------|

e|---------------------------------------------------------------------------|
B|---------------------------------------------------------------------------|
G|---------------------------------------------------------------------------|
D|-8-8-8-8-8-8-8-8-6-6-6-6-6-6-6-6-4-4-4-4-4-4-4-4-4-4-4-4-4-4-4-4-----------|
A|-8-8-8-8-8-8-8-8-6-6-6-6-6-6-6-6-4-4-4-4-4-4-4-4-4-4-4-4-4-4-4-4-----------|
D|-8-8-8-8-8-8-8-8-6-6-6-6-6-6-6-6-4-4-4-4-4-4-4-4-4-4-4-4-4-4-4-4-----------|



e|---------------------------------------------------------------------------|
B|---------------------------------------------------------------------------|
G|---------------------------------------------------------------------------|
D|-8-8-8-8-8-8-8-8-6-6-6-6-6-6-6-6-4-4-4-4-4-4-4-4-4-4-4-4-4-4-4-4-----------|
A|-8-8-8-8-8-8-8-8-6-6-6-6-6-6-6-6-4-4-4-4-4-4-4-4-4-4-4-4-4-4-4-4-----------|
D|-8-8-8-8-8-8-8-8-6-6-6-6-6-6-6-6-4-4-4-4-4-4-4-4-4-4-4-4-4-4-4-4-----------|

e|---------------------------------------------------------------------------|
B|---------------------------------------------------------------------------|
G|---------------------------------------------------------------------------|
D|-8-8-8-8-8-8-8-8-6-6-6-6-6-6-6-6-4-4-4-4-4-4-4-4-4-4-4-4-4-4-4-4-----------|
A|-8-8-8-8-8-8-8-8-6-6-6-6-6-6-6-6-4-4-4-4-4-4-4-4-4-4-4-4-4-4-4-4-----------|
D|-8-8-8-8-8-8-8-8-6-6-6-6-6-6-6-6-4-4-4-4-4-4-4-4-4-4-4-4-4-4-4-4-----------|



e|---------------------------------------------------------------------------|
B|---------------------------------------------------------------------------|
G|---------------------------------------------------------------------------|
D|-8-8-8-8-8-8-8-8-6-6-6-6-6-6-6-6-4-4-4-4-4-4-4-4-4-4-4-4-4-4-4-4-----------|
A|---------------------------------------------------------------------------|
D|---------------------------------------------------------------------------|

e|---------------------------------------------------------------------------|
B|---------------------------------------------------------------------------|
G|---------------------------------------------------------------------------|
D|-8-8-8-8-8-8-8-8-6-6-6-6-6-6-6-6-4-4-4-4-4-4-4-4-4-4-4-4-4-4-4-4-----------|
A|-8-8-8-8-8-8-8-8-6-6-6-6-6-6-6-6-4-4-4-4-4-4-4-4-4-4-4-4-4-4-4-4-----------|
D|-8-8-8-8-8-8-8-8-6-6-6-6-6-6-6-6-4-4-4-4-4-4-4-4-4-4-4-4-4-4-4-4-----------|



e|---------------------------------------------------------------------------|
B|---------------------------------------------------------------------------|
G|---------------------------------------------------------------------------|
D|-8-8-8-8-8-8-8-8-6-6-6-6-6-6-6-6-4-4-4-4-4-4-4-4-4-4-4-4-4-4-4-4-----------|
A|---------------------------------------------------------------------------|
D|---------------------------------------------------------------------------|

e|---------------------------------------------------------------------------|
B|---------------------------------------------------------------------------|
G|---------------------------------------------------------------------------|
D|-8-8-8-8-8-8-8-8-6-6-6-6-6-6-6-6-4-4-4-4-4-4-4-4-4-4-4-4-4-4-4-4-----------|
A|-8-8-8-8-8-8-8-8-6-6-6-6-6-6-6-6-4-4-4-4-4-4-4-4-4-4-4-4-4-4-4-4-----------|
D|-8-8-8-8-8-8-8-8-6-6-6-6-6-6-6-6-4-4-4-4-4-4-4-4-4-4-4-4-4-4-4-4-----------|


Solo

e|---------------------------------------------------------------------------|
B|---------------------------------------------------------------------------|
G|-----------------------------8b10r8-6--------------------------------------|
D|---------6-----------6----------------*8*--8-6-8---------------------------|
A|-6-4-6-4---6-4-6-4-6---6-4v------------------------------------------------|
D|---------------------------------------------------------------------------|

e|---------------------------------------------------------------------------|
B|---------------------------------------------------------------------------|
G|---------------------------------------------------------------------------|
D|-8~--8--8-8--8~--8--8-8----------------------------------------------------|
A|-8~--8--8-8--8~--8--8-8----------------------------------------------------|
D|-8~--8--8-8--8~--8--8-8----------------------------------------------------|



e|---------------------------------------------------------------------------|
B|---------------------------------------------------------------------------|
G|---------------------------------------------------------------------------|
D|-/11--8-6-8------6---------------------------------------------------------|
A|-------------4-6---6-4-6-3v------------------------------------------------|
D|-----------------------------/10-8-----------------------------------------|

e|---------------------------------------------------------------------------|
B|---------------------------------------------------------------------------|
G|---------------------------------------------------------------------------|
D|-4~--4--4-4--4~--4--4-4----------------------------------------------------|
A|-4~--4--4-4--4~--4--4-4----------------------------------------------------|
D|-4~--4--4-4--4~--4--4-4----------------------------------------------------|


Breakdown

e|------------------------------------------------|--------------------------|
B|------------------------------------------------|--------------------------|
G|-10-10-10-10-10-10-10-10-10-10-10-10-10-10-10-10|--------------------------|
D|-x--x--x--x--x--x--x--x--x--x--x--x--x--x--x--x-|--X2----------------------|
A|-8--8--8--8--8--8--8--8--8--8--8--8--8--8--8--8-|--------------------------|
D|------------------------------------------------|--------------------------|

e|---------------------------------------------------------------------------|
B|---------------------------------------------------------------------------|
G|---------------------------------------------------------------------------|
D|-8-8-8-8-8-8-8-8-8-8-8-8-8-8-8-8-8-8-8-8-8-8-8-8-8-8-8-8-8-8-8-8-----------|
A|-8-8-8-8-8-8-8-8-8-8-8-8-8-8-8-8-8-8-8-8-8-8-8-8-8-8-8-8-8-8-8-8-----------|
D|-8-8-8-8-8-8-8-8-8-8-8-8-8-8-8-8-8-8-8-8-8-8-8-8-8-8-8-8-8-8-8-8-----------|



e|---------------------------------------------------------------------------|
B|---------------------------------------------------------------------------|
G|-6-6-6-6-6-6-6-6-6-6-6-6-6-6-6-6-6-6-6-6-6-6-6-6-6-6-6-6-6-6-6-6-----------|
D|-x-x-x-x-x-x-x-x-x-x-x-x-x-x-x-x-x-x-x-x-x-x-x-x-x-x-x-x-x-x-x-x-----------|
A|-4-4-4-4-4-4-4-4-4-4-4-4-4-4-4-4-4-4-4-4-4-4-4-4-4-4-4-4-4-4-4-4-----------|
D|---------------------------------------------------------------------------|

e|---------------------------------------------------------------------------|
B|---------------------------------------------------------------------------|
G|---------------------------------------------------------------------------|
D|-4-4-4-4-4-4-4-4-4-4-4-4-4-4-4-4-4-4-4-4-4-4-4-4-4-4-4-4-4-4-4-4-----------|
A|-4-4-4-4-4-4-4-4-4-4-4-4-4-4-4-4-4-4-4-4-4-4-4-4-4-4-4-4-4-4-4-4-----------|
D|-4-4-4-4-4-4-4-4-4-4-4-4-4-4-4-4-4-4-4-4-4-4-4-4-4-4-4-4-4-4-4-4-----------|


Chorus

e|---------------------------------------------------------------------------|
B|---------------------------------------------------------------------------|
G|---------------------------------------------------------------------------|
D|-8-8-8-8-6-6-6-6-4-4-4-4-4-4-4-4-8-6-8-6--6-8-6-4-4-4-4-4-4-4-4------------|
A|-8-8-8-8-6-6-6-6-4-4-4-4-4-4-4-4-8-6-8-6--6-8-6-4-4-4-4-4-4-4-4------------|
D|-8-8-8-8-6-6-6-6-4-4-4-4-4-4-4-4-8-6-8-6--6-8-6-4-4-4-4-4-4-4-4------------|
  ~~~~~~~~~~~~~~p.m.~~~~~~~~~~~~~~


e|---------------------------------------------------------------------------|
B|---------------------------------------------------------------------------|
G|---------------------------------------------------------------------------|
D|-8-8-8-8-6-6-6-6-4-4-4-4-4-4-4-4-8-6-8-6--6-8-6-4-4-4-4-4-4-4-4------------|
A|-8-8-8-8-6-6-6-6-4-4-4-4-4-4-4-4-8-6-8-6--6-8-6-4-4-4-4-4-4-4-4------------|
D|-8-8-8-8-6-6-6-6-4-4-4-4-4-4-4-4-8-6-8-6--6-8-6-4-4-4-4-4-4-4-4------------|
  ~~~~~~~~~~~~~~p.m.~~~~~~~~~~~~~~



e|---------------------------------------------------------------------------|
B|---------------------------------------------------------------------------|
G|---------------------------------------------------------------------------|
D|-8-8-8-8-6-6-6-6-4-4-4-4-4-------8-6-8-6--6/8\6-4-4-4-4-4-4-4-4------------|
A|-8-8-8-8-6-6-6-6-4-4-4-4-4-------8-6-8-6--6/8\6-4-4-4-4-4-4-4-4------------|
D|-8-8-8-8-6-6-6-6-4-4-4-4-4-0-4-6-8-6-8-6--6/8\6-4-4-4-4-4-4-4-4------------|

e|---------------------------------------------------------------------------|
B|---------------------------------------------------------------------------|
G|---------------------------------------------------------------------------|
D|-8-8-8-8-6-6-6-6-4-4-4-4-4-4-4-4-8-6-8-6--6/8\6-4-4-4-4-4-4-4-4------------|
A|-8-8-8-8-6-6-6-6-4-4-4-4-4-4-4-4-8-6-8-6--6/8\6-4-4-4-4-4-4-4-4------------|
D|-8-8-8-8-6-6-6-6-4-4-4-4-4-4-4-4-8-6-8-6--6/8\6-4-4-4-4-4-4-4-4------------|



e|---------------------------------------------------------------------------|
B|---------------------------------------------------------------------------|
G|-----------------15-15-15-15-15-15-15-15-15-15-17-17-18-18-17-17-----------|
D|---------------------------------------------------------------------------|
A|---------------------------------------------------------------------------|
D|---------------------------------------------------------------------------|

e|---------------------------------------------------------------------------|
B|---------------------------------------------------------------------------|
G|---------------------------------------------------------------------------|
D|-8-8-8-8-6-6-6-6-4-4-4-4-4-4-4-4-8-6-8-6-----------------------------------|
A|-8-8-8-8-6-6-6-6-4-4-4-4-4-4-4-4-8-6-8-6-----------------------------------|
D|-8-8-8-8-6-6-6-6-4-4-4-4-4-4-4-4-8-6-8-6-----------------------------------|


e|---------------------------------------------------------------------------|
B|---------------------------------------------------------------------------|
G|-18-18-18-17-17-17-18-18-18-17-17-17-18-17-15-11~--------------------------|
D|---------------------------------------------------------------------------|
A|---------------------------------------------------------------------------|
D|---------------------------------------------------------------------------|

e|---------------------------------------------------------------------------|
B|---------------------------------------------------------------------------|
G|---------------------------------------------------------------------------|
D|-6/8\6-4-4-4-4-4-4-4-4-----------------------------------------------------|
A|-6/8\6-4-4-4-4-4-4-4-4-----------------------------------------------------|
D|-6/8\6-4-4-4-4-4-4-4-4-----------------------------------------------------|



e|---------------------------------------------------------------------------|
B|---------------------------------------------------------------------------|
G|-----------------15-15-15-15-15-15-15-15-15-15-17-17-18-18-17-17-----------|
D|---------------------------------------------------------------------------|
A|---------------------------------------------------------------------------|
D|---------------------------------------------------------------------------|

e|---------------------------------------------------------------------------|
B|---------------------------------------------------------------------------|
G|---------------------------------------------------------------------------|
D|-8-8-8-8-6-6-6-6-4-4-4-4-4-4-4-4-8-6-8-6-----------------------------------|
A|-8-8-8-8-6-6-6-6-4-4-4-4-4-4-4-4-8-6-8-6-----------------------------------|
D|-8-8-8-8-6-6-6-6-4-4-4-4-4-4-4-4-8-6-8-6-----------------------------------|



e|---------------------------------------------------------------------------|
B|---------------------------------------------------------------------------|
G|-18-18-18-17-17-17-18-18-18-17-17-17-18-17-15-11~--------------------------|
D|---------------------------------------------------------------------------|
A|---------------------------------------------------------------------------|
D|---------------------------------------------------------------------------|

e|---------------------------------------------------------------------------|
B|---------------------------------------------------------------------------|
G|---------------------------------------------------------------------------|
D|-6/8\6-4-4-4-4-4-4-4-4-----------------------------------------------------|
A|-6/8\6-4-4-4-4-4-4-4-4-----------------------------------------------------|
D|-6/8\6-4-4-4-4-4-4-4-4-----------------------------------------------------|



|---|
|Key|
|---|

x--mute note
/--slide up
\--slide down
*x*--artificial harmonic
~--let ring
v--vibrato
xbyrx-- bend x to y, then back to x
and of course, [p.m.] means palm mute anything with [~] under it


            
            
Suggest correction
Creating personal tab
Creating personal tab
You can edit any tab online and save it as your Personal.

You can edit, replace or remove any tab part or add personal notes – all changes will be seen only by you.

Personal tabs can be accessed anytime from any device, even offline.
Learn more »
Give kudos to tab author, rate the tab!
1 2 3 4 5
comments
print report bad tab
guest
You may want to rate the tab now too:
select rating
Wanna post a correction for this tab? Suggest correction