Oops, an error
Loading. Please wait.

Widows Are Always Late tab

by SPAYED
137 views 1 this week
1 commentread comment
1 2 3 4 5
2 more votes to show rating
add to favorites
×
Save as Personal and add changes to this tab that will be seen only by you. Learn more ›
×
You can save this tab as Personal to edit and correct it or add notes. All changes will be seen only by you. Learn more »
launch autoscroll
font size
0
reset
how to read this tab
guitar tuner
edit
Autoscroll
slow
fast
+/-
esc
set tempo
stop
Author


Band/Artist: SPAYED (Cecile)
Title: Widows are always late.
Off: Seven Inch Vinyl EP.
Info: http://www.last.fm/music/SPAYED/Seven+inch+vinyl+EP+(Unreleased)
      http://www.sonicbids.com/SPAYED
      http://minervacorner.blogspot.com/2008/04/spayed.html
      http://www.minervacorner.com/artists/spayed/comments.html
      http://www.last.fm/group/SPAYED


this song was writing by SPAYED and its off of their 7' Vinyl (Ep)
this song "Widows are always late" caused a revolution in the underground punk rock 
in Europe and America.
(it is well known that during a riot on Washington d.c while most of the 
were fighting back the anti-riot police, this song
"Widows are always late" was being play out loud. several other people claim it was all 
ep play repeatedly times on that day)
however according to people around the band Cecile wrote this song about all the bands 
to desperately "imitate" SPAYED.


Tunning
F# F# F# F# E B
How to tune: Eu2 Ad3 Du4 Gd1 Bd7 Ed5 (Cecile tend to use this tunning on Rarities and outtakes)


Intro: (you will need to listen to the track for the timing)


|------------------------------x---------------------------------------------|
|-----13+(let it ring)----0=Untune=~-0---------------------------------------|
|-----------------------------------------x-0=Untune=~-----------------------|
|----------------------------------------------------------------------------|
|----------------------------------------------------------------------------|
|----------------------------------------------------------------------------|


|-------15+----------18===--19----23h-----6---0--22h---16--15~--17h--x--x===-|
|---16~--~17h===----17~---22~-13---17h====---~10~12+1019--4--17--17+--14-23==|
|--------17h=14~---16----18~----23~--21---14------+7=----18-16~-13h14~-16+---|
|----------------17h===----19h===---------22--------17----19-------------~17s|
|------------------------------------16~------20+--------===-----------------|
|0=Untune=-------------------------------------------------------------------|

|----------------------------x---------------------x-------------------x---x-|
|---17s===-17~-17---17~---22~---13--17--7--21~----1h-3-7----17s===--3~-23---x|
|--17h=14~-------16~----17~-23h24--14--17~--+7--3h=7--4-5---17---3h4--24-x-x-|
|------------------------------------15h===----------~22h===--------x--------|
|-----===17+===------------------------16h===------~21h===-------------------|
|----------------------------------------------------------------------------|

|------------------------------x----------------------~2---------------------|
|--------------x=Untune=----------------------------x=Untune-=---------------|
|--------------0-----------------------------------0-+24-----------------23--|
|------------------------------------------------------------------------24--|
|----------------------------------------------------------------------------|
|----------------------------------------------------------------------------|

|---------------------------------------------------------------/13===-------|
|--------------------------------------------x-----------------8(~)---/13--x-|
|---------------------------------8(~)-8h-8h----------------------------21---|
|--8~===--4~===-------4~===--8~===------------4s-6-7-8(~)-8h-8h--------------|
|---------------5~===--------------------------------------------------------|
|----------------------------------------------------------------------------|

|------------------------------x---------------------------------------------|
|-----13+(let it ring)-------------------------------------------------------|
|-----------------------------------------x-0=Untune=~-----------------------|
|----------------------------------------------------------------------------|
|----------------------------------------------------------------------------|
|----------------------------------------------------------------------------|


|---------------------------------------------------------------/13===-------|
|--------------------------------------------x-----------------8(~)---/13--x-|
|---------------------------------8(~)-8h-8h----------------------------21---|
|---------------------------------------------4s-6-7-8(~)-8h-8h--------------|
|----------------------------------------------------------------------------|
|----------------------------------------------------------------------------|


|---------------------------------------------------------------/13===-------|
|--8(~~~~~)-8(~)-8(~)--4--6--7--8-------------x-----------------------/13--x-|
|----------------------------------------------------------------------------|
|---------------------------------------------4s-6-7-8(~)-8h-8h--------------|
|------------------------------------------4--6---7-----8-----4~~~~----------|
|-------------------------------------------------------------------5--------|


|------------------------------x---------------------------------------------|
|-----13+(let it ring)-----------------------3-3-3+====---13+(let it ring)---|
|-----------------3h===------3~~~~~~~~3---~~3--------------------------------|
|----------------------3h===---------------3~~---3~~-------------------------|
|----------------------------------------------------------------------------|
|----------------------------------------------------------------------------|

Now you will have to try to imitate the "destruction-guitar" feedback (NO you will not
get this sound with some effect-box so get your guitar and "shake" it (with gain all the way up
until you get that feedback) and then untune.

|----------------------------------------------------------------------------|
|----------------------------------------------------------------------------|
|----------------------------------------------------------------------------|
|----------------------------------------------------------------------------|
|----------------------------------------------------------------------------|
|--0(~~~~~~~~)======Untune all the way down=======---------------------------|

And now  Cecile's "saws" sounds. (1:44) (amazing, don't you think)

|----------------------------------------------------------------------------|
|----------------------------------17(+)-18(+)-19(+)-20(+)-21(+)-22(+)-23(+)-|
|----------------------------------------------------------------------------|
|----------------------------------------------------------------------------|
|----------------------------------------------------------------------------|
|--0(~~~~~~~~)======Untune all the way down=======---------------------------|


|----------------------------------------------------------------------------|
|-------------------------------------------------------13(+)----------------|
|--x---x-----x-x--x-x-x-x-x-x-x---x-x----------------------------------------|
|-x-x-x-----x-x-x--x-x-x-x-x-x-2-0-3-0-4h3-5--2-3-2-6-2h---------------------|
|-2-0-3-0-4h3-5--2-3-2-6-2h3-2-0-3-0-4h3-5--2-3-2-6-2h3-----00-22~~~~~~~~--00|
|-0-0-3-0-6h3-5--2-3-2-6-2h3-0-0-3-0-6h3-5--2-3-2-6-2h3-----00-22~~~~~~~~--00|

|----------------------------------------------------------------------------|
|-------------------------------------------------------14(+)----------------|
|--x---x-----x-x--x-x-x-x-x-x-x---x-x----------------------------------------|
|-x-x-x-----x-x-x--x-x-x-x-x-x-2-0-3-0-4h3-5--2-3-2-6-2h---------------------|
|-2-0-3-0-4h3-5--2-3-2-6-2h3-2-0-3-0-4h3-5--2-3-2-6-2h3-----00-22~~~~~~~~--00|
|-0-0-3-0-6h3-5--2-3-2-6-2h3-0-0-3-0-6h3-5--2-3-2-6-2h3-----00-22~~~~~~~~--00|

|----------------------------------------------------------------------------|
|-------------------------------------------------------15(+)----------------|
|--x---x-----x-x--x-x-x-x-x-x-x---x-x----------------------------------------|
|-x-x-x-----x-x-x--x-x-x-x-x-x-2-0-3-0-4h3-5--2-3-2-6-2h---------------------|
|-2-0-3-0-4h3-5--2-3-2-6-2h3-2-0-3-0-4h3-5--2-3-2-6-2h3-----00-22~~~~~~~~--00|
|-0-0-3-0-6h3-5--2-3-2-6-2h3-0-0-3-0-6h3-5--2-3-2-6-2h3-----00-22~~~~~~~~--00|


|----------------------------------------------------------------------------|
|-------------------------------------------------------16(+)----------------|
|--x---x-----x-x--x-x-x-x-x-x-x---x-x----------------------------------------|
|-x-x-x-----x-x-x--x-x-x-x-x-x-2-0-3-0-4h3-5--2-3-2-6-2h---------------------|
|-2-0-3-0-4h3-5--2-3-2-6-2h3-2-0-3-0-4h3-5--2-3-2-6-2h3-----00-22~~~~~~~~--00|
|-0-0-3-0-6h3-5--2-3-2-6-2h3-0-0-3-0-6h3-5--2-3-2-6-2h3-----00-22~~~~~~~~--00|


"Im a rock and roll whore..."


|----------------------------------------------------------------------------|
|----------------------------------------------------------------------------|
|-----------------------------(try to break the string)6~~~~~~~~~~~~~~~~~~~~~|
|----------------------------------------------------------------------------|
|----------------------------------------------------------------------------|
|----------------------------------------------------------------------------|

|----------------------------------------------------------------------------|
|----------------------------------------------------------------------------|
|~~~~~~~~~~~~~~~~~~~~~~~~~~~~~~~~~~~~~~~~~~~~~~~~~~~~~~~~~~~~~~~-------------|
|----------------------------------------------------------------------------|
|----------------------------------------------------------------------------|
|----------------------------------------------------------------------------|

|----------------------------------------------------------------------------|
|----------------------------------------------------------------------------|
|-----3----------------------------------------------------------------------|
|-----3----------------------------------------------------------------------|
|-----3----------------------------------------------------------------------|
|-----3----------------------------------------------------------------------|
       [x 3]

"Im so well trained.."

and here is the part when Cecile screams the lungs out..

|----------------------------------------------------------------------------|
|----------------------------------------------------------------------------|
|-----------------------------33333333333333333333333333~~~~~~~~~~~~~~~~~~~~~|
|-------------------------------0---0---0---0---0--0---0---------------------|
|----------------------------------------------------------------------------|
|----------------------------------------------------------------------------|


|----------------------------------------------------------------------------|
|-------------------------------------------------------13(+)----------------|
|--x---x-----x-x--x-x-x-x-x-x-x---x-x----------------------------------------|
|-x-x-x-----x-x-x--x-x-x-x-x-x-2-0-3-0-4h3-5--2-3-2-6-2h---------------------|
|-2-0-3-0-4h3-5--2-3-2-6-2h3-2-0-3-0-4h3-5--2-3-2-6-2h3-----00-22~~~~~~~~--00|
|-0-0-3-0-6h3-5--2-3-2-6-2h3-0-0-3-0-6h3-5--2-3-2-6-2h3-----00-22~~~~~~~~--00|

|----------------------------------------------------------------------------|
|-------------------------------------------------------14(+)----------------|
|--x---x-----x-x--x-x-x-x-x-x-x---x-x----------------------------------------|
|-x-x-x-----x-x-x--x-x-x-x-x-x-2-0-3-0-4h3-5--2-3-2-6-2h---------------------|
|-2-0-3-0-4h3-5--2-3-2-6-2h3-2-0-3-0-4h3-5--2-3-2-6-2h3-----00-22~~~~~~~~--00|
|-0-0-3-0-6h3-5--2-3-2-6-2h3-0-0-3-0-6h3-5--2-3-2-6-2h3-----00-22~~~~~~~~--00|

|----------------------------------------------------------------------------|
|-------------------------------------------------------15(+)----------------|
|--x---x-----x-x--x-x-x-x-x-x-x---x-x----------------------------------------|
|-x-x-x-----x-x-x--x-x-x-x-x-x-2-0-3-0-4h3-5--2-3-2-6-2h---------------------|
|-2-0-3-0-4h3-5--2-3-2-6-2h3-2-0-3-0-4h3-5--2-3-2-6-2h3-----00-22~~~~~~~~--00|
|-0-0-3-0-6h3-5--2-3-2-6-2h3-0-0-3-0-6h3-5--2-3-2-6-2h3-----00-22~~~~~~~~--00|


|----------------------------------------------------------------------------|
|-------------------------------------------------------16(+)----------------|
|--x---x-----x-x--x-x-x-x-x-x-x---x-x----------------------------------------|
|-x-x-x-----x-x-x--x-x-x-x-x-x-2-0-3-0-4h3-5--2-3-2-6-2h---------------------|
|-2-0-3-0-4h3-5--2-3-2-6-2h3-2-0-3-0-4h3-5--2-3-2-6-2h3-----00-22~~~~~~~~--00|
|-0-0-3-0-6h3-5--2-3-2-6-2h3-0-0-3-0-6h3-5--2-3-2-6-2h3-----00-22~~~~~~~~--00|

this is another amazing part of this song and its really exited to play it.
(pull the string with your fingers don't use the pick, i know its sound weird but hell..
Cecile is not your average guitar player)

|----------------------------------------------------------------------------|
|-----------------------------6~~~~~~~~~~~~~~~~~~~~~-~~~~~~~~~~~~~~~~~~~~~6--|
|--------------------------6~~~~~~~~~~~~~~~~~~~~~--~~~~~~~~~~~~~~~~~~~~~6----|
|----------------------------------------------------------------------------|
|----------------------------------------------------------------------------|
|----------------------------------------------------------------------------|
                                                       [x 7]

|----------------------------------------------------------------------------|
|---------------------------------16(~~~~~~~~~~~~~~~~~~~~~)------------------|
|----------------------------------------------------------------------------|
|----------------------------------------------------------------------------|
|-2-2-3-x-x-x-x---2h4-x-x-x-x-2h3--------0-2-2-3-2-2--2-3-2-6-2h3-----00-22~~|
|-2-2-3-x-x-x-x---2h4-x-x-x-2h3-0--------0-2-2-3-2-2--2-3-2-6-2h3-----00-22~~|


|----------------------------------------------------------------------------|
|---------------------------------13(~~~~~~~~~~~~~~~~~~~~~)------------------|
|----------------------------------------------------------------------------|
|----------------------------------------------------------------------------|
|-2-2-3-x-x-x-x---2h4-x-x-x-x-2h3--------0-2-2-3-2-2--2-3-2-6-2h3-----00-22~~|
|-2-2-3-x-x-x-x---2h4-x-x-x-2h3-0--------0-2-2-3-2-2--2-3-2-6-2h3-----00-22~~|


|----------------------------------------------------------------------------|
|---------------------------------------(Silence)----------------------------|
|----------------------------------------------------------------------------|
|----------------------------------------------------------------------------|
|-2-2-3-x-x-x-x---2h4-x-x-x-x-2h3--------------------------------------------|
|-2-2-3-x-x-x-x---2h4-x-x-x-2h3-0--------------------------------------------|

|----------------------------------------------------------------------------|
|---------------------------------16(~~~~~~~~~~~~~~~~~~~~~)------------------|
|----------------------------------------------------------------------------|
|----------------------------------------------------------------------------|
|-2-2-3-x-x-x-x---2h4-x-x-x-x-2h3--------0-2-2-3-2-2--2-3-2-6-2h3-----00-22~~|
|-2-2-3-x-x-x-x---2h4-x-x-x-2h3-0--------0-2-2-3-2-2--2-3-2-6-2h3-----00-22~~|

|----------------------------------------------------------------------------|
|---------------------------------13(~~~~~~~~~~~~~~~~~~~~~)------------------|
|----------------------------------------------------------------------------|
|----------------------------------------------------------------------------|
|-2-2-3-x-x-x-x---2h4-x-x-x-x-2h3--------0-2-2-3-2-2--2-3-2-6-2h3-----00-22~~|
|-2-2-3-x-x-x-x---2h4-x-x-x-2h3-0--------0-2-2-3-2-2--2-3-2-6-2h3-----00-22~~|

|----------------------------------------------------------------------------|
|-----------------------------6~~~~~~~~~~~~~~~~~~~~~-~~~~~~~~~~~~~~~~~~~~~13-|
|--------------------------6~~~~~~~~~~~~~~~~~~~~~--~~~~~~~~~~~~~~~~~~~~~13---|
|------------------------6~~~~~~~~~~~~~~~~~~~~~--~~~~~~~~~~~~~~~~~~~~~13-----|
|----------------------------------------------------------------------------|
|----------------------------------------------------------------------------|
                                                                       [x 7]

|----------------------------------------------------------------------------|
|-----------------------------13~~~~~~~~~~~~~~~~~~~~~-~~~~~~~~~~~~~~~~~~~~~6-|
|--------------------------13~~~~~~~~~~~~~~~~~~~~~--~~~~~~~~~~~~~~~~~~~~~6---|
|------------------------13~~~~~~~~~~~~~~~~~~~~~--~~~~~~~~~~~~~~~~~~~~~6-----|
|----------------------------------------------------------------------------|
|----------------------------------------------------------------------------|
                                                                       [x 6]


Heres the "calm" part (well not so calm) Cecile makes rains of horror-like feedbacks.
i dont really know how to tab it all the spooky noises, maybe someone with more 
than me i don't know..
just make as much horror-feedback noise as you and your guitar can.
remember to move (shake, pull the stings) your guitar as much as you can.
i know that is not easy to sound like Cecile but it is great to try to play this 
band (SPAYED) songs.

"It is now the time to imitate each other..."


|---------------3h6~~~~~~~~-----------------------------------------6~~~~~~~-|
|-------------------6h3~~~~~~~~------------------------------------2---------|
|---------------------------------x-x------------x---x------------3----------|
|---x---x----------------------x------------------0-4-0--4h3-----2-----------|
|-2-0-3-0-7h3------------2h3-2-0-3-0-4h3-5-------2-6-6h3-----66h22~~~~~~~~-xx|
|-2-0-3-0-7h3------------2h3-2-0-3-0-6h3-5-----2-6-6h3-----66h22~~~~~~~~---xx|


Play these when Cecile screams "Spayed..."


|----------------------------------------------------------------------------|
|-------------------------------------------------------19(+)----------------|
|--x---x-----x-x--x-x-x-x-x-x-x---x-x----------------------------------------|
|-x-x-x-----x-x-x--x-x-x-x-x-x-2-0-3-0-4h3-5--2-3-2-6-2h---------------------|
|-2-0-3-0-4h3-5--2-3-2-6-2h3-2-0-3-0-4h3-5--2-3-2-6-2h3-----00-22~~~~~~~~--00|
|-0-0-3-0-6h3-5--2-3-2-6-2h3-0-0-3-0-6h3-5--2-3-2-6-2h3-----00-22~~~~~~~~--00|


|----------------------------------------------------------------------------|
|-------------------------------------------------------20(+)----------------|
|--x---x-----x-x--x-x-x-x-x-x-x---x-x----------------------------------------|
|-x-x-x-----x-x-x--x-x-x-x-x-x-2-0-3-0-4h3-5--2-3-2-6-2h---------------------|
|-2-0-3-0-4h3-5--2-3-2-6-2h3-2-0-3-0-4h3-5--2-3-2-6-2h3-----00-22~~~~~~~~--00|
|-0-0-3-0-6h3-5--2-3-2-6-2h3-0-0-3-0-6h3-5--2-3-2-6-2h3-----00-22~~~~~~~~--00|


|----------------------------------------------------------------------------|
|-------------------------------------------------------21(+)----------------|
|--x---x-----x-x--x-x-x-x-x-x-x---x-x----------------------------------------|
|-x-x-x-----x-x-x--x-x-x-x-x-x-2-0-3-0-4h3-5--2-3-2-6-2h---------------------|
|-2-0-3-0-4h3-5--2-3-2-6-2h3-2-0-3-0-4h3-5--2-3-2-6-2h3-----00-22~~~~~~~~--00|
|-0-0-3-0-6h3-5--2-3-2-6-2h3-0-0-3-0-6h3-5--2-3-2-6-2h3-----00-22~~~~~~~~--00|


|---------------------------------------------------------------|
|-------------------------------------------------------22(+)---|
|--x---x-----x-x--x-x-x-x-x-x-x---x-x---------------------------|
|-x-x-x-----x-x-x--x-x-x-x-x-x-2-0-3-0-4h3-5--2-3-2-6-2h--------|
|-2-0-3-0-4h3-5--2-3-2-6-2h3-2-0-3-0-4h3-5--2-3-2-6-2h3-----00--|Untune all the way up
|-0-0-3-0-6h3-5--2-3-2-6-2h3-0-0-3-0-6h3-5--2-3-2-6-2h3-----00--|Untune all the way up

|----------------------------------------------------------------------------|
|----------------------------------------------------------------------------|
|----------------------------------------------------------------------------|
|----------------------------------------------------------------------------|
|--0======Untune all the way up=======---------------------------------------|
|--0======Untune all the way up=======---------------------------------------|

Remember in the end of the song Cecile Untune/Tune all way up (not all the way down)
that's how he get the "slide-cristal" sound.

(NOTE:for all the people asking me about the bass line: Daniel untune the bass for the intro!
and then he play these over and over again (with some variations)

|-----------------------------------------------------------------------------|
|-----------------------------------------------------------------------------|
|-----------------------------------------------------------------------------|
|0-=Untune the string=0-0-0-0-0-0--0-0--0-1-0-0-3--0-0-0-0-0-0--0-0--0-1-0-0-3| (all the way down)

and im done!

Im Courtney, thanks.
(RIOTANARCHY@MAIL.COM)

(European Tour)

SPAYED hit Europe. (THE DOWNFALL OF EUROPE)
Sunday 7 February 2010

Around the UK.
Liverpool
United Kingdom
DOWNFALL OF EUROPE.

            
            
Suggest correction
Creating personal tab
Creating personal tab
You can edit any tab online and save it as your Personal.

You can edit, replace or remove any tab part or add personal notes – all changes will be seen only by you.

Personal tabs can be accessed anytime from any device, even offline.
Learn more »
Give kudos to tab author, rate the tab!
1 2 3 4 5
comments
print report bad tab
1 comment total.
0 reply
AnttiM 10 Dec 22, 2011 07:07 AM

This song is ****ing amazing
HAIL TO SPAYED

guest
You may want to rate the tab now too:
select rating
Wanna post a correction for this tab? Suggest correction