Oops, an error
Loading. Please wait.

Hit The Bass tab

version 1
version 1

Whole song

4,900 views 1 this week
2 commentsread comments
1 2 3 4 5
x 4
add to favorites
×
Save as Personal and add changes to this tab that will be seen only by you. Learn more ›
×
You can save this tab as Personal to edit and correct it or add notes. All changes will be seen only by you. Learn more »
launch autoscroll
font size
0
reset
how to read this tab
guitar tuner
edit
Autoscroll
slow
fast
+/-
esc
set tempo
stop
                               Speakerbox/Hit The Bass
                             (German Veltins Advertising)

It's A Nice Song That Begins With :



e|---------------------------------------------------------------------------|
B|---------------------------------------------------------------------------|
G|---------------------------------------------------------------------------|
D|---------3-3----------5----------------------------------------------------|
A|---0h1---1-1----1/3---3----------------------------------------------------|
E|---------------------------------------------------------------------------|

Play This 3times ,then add after the Third this :

e|---------------------------------------------------------------------------|
B|---------------------------------------------------------------------------|
G|---------------------------------------------------------------------------|
D|---------------------------------------------------------------------------|
A|----3-3-3-3------------3-3-3-3---------------------------------------------|
E|----1-1-1-1------------1-1-1-1---------------------------------------------|

h = hammer-on
/ = slide-on

I Think This Rules The Hole Song ;D
That Was My First Tab Hope U Enjoy !!!


            
            
Suggest correction
Creating personal tab
Creating personal tab
You can edit any tab online and save it as your Personal.

You can edit, replace or remove any tab part or add personal notes – all changes will be seen only by you.

Personal tabs can be accessed anytime from any device, even offline.
Learn more »
comments
print report bad tab
2 comments total.
0 reply
~JetSet~ 178 Aug 19, 2008 01:18 PM

e|-------------------------------------------------------------------
B|---------------------------------------
G|-----------3---------------------------
D|-----------3-------5-5--------3-3-3-3--
A|---0h1---1-1-------5-5--------3-3-3-3-- ...
E|--------------1/3--3-3--------x-x-x-x--


i think this is the right way to play this song!
still well done!

0 reply
Meex9999 10 Apr 26, 2010 08:05 AM

haha sry i wrote in the wrong line ;D thx

guest
Wanna post a correction for this tab? Suggest correction