Oops, an error
Loading. Please wait.

Conventional Lover bass

by Speck
868 views 3 this week
no commentswrite comment
1 2 3 4 5
3 more votes to show rating
add to favorites
×
Save as Personal and add changes to this tab that will be seen only by you. Learn more ›
×
You can save this tab as Personal to edit and correct it or add notes. All changes will be seen only by you. Learn more »
launch autoscroll
font size
0
reset
guitar tuner
backing track
0:00
0:00
edit
Autoscroll
slow
fast
+/-
esc
set tempo
stop
Author
There weren't any tabs for it yet so I figured I'd tab it out.

This can also be used as a guitar tab if you want, just turn the notes into power chords.

One last note - the 7s on the E string can also be played as 2s on the A if you prefer 
it that way.

Verse 1

G|----------------------------------|
D|----------------------------------|
A|-4-44-44--------------------------|
E|---------4-44-44-7-77-77-2-22-22--|  x2

Pre-Chorus

G|--------------------------------|
D|--------------------------------|
A|--------------------------------|
E|-0-00-00-2-22-22-7-77-77-77-----|

G|--------------------------------|
D|--------------------------------|
A|--------------------------------|
E|-0-00-00-2-22-22-4-44-44-44-----|

Chorus

G|----------------------------|
D|----------------------------|
A|-4----------44--------------|
E|---44-77-22----44-77-22-----| x2

G|-----------------------------|
D|-----------------------------|
A|-----------------------------|
E|-0000000022222222------------|

G|----------------------------|
D|----------------------------|
A|-4----------44--------------|
E|---44-77-22----44-77-22-----| x2

G|-----------------------------|
D|-----------------------------|
A|-----------------------------|
E|-000000002222222244444444----|

Verse 2

G|----------------------------------|
D|----------------------------------|
A|-4-44-44--------------------------|
E|---------4-44-44-7-77-77-2-22-22--|  x2

Pre-Chorus

G|--------------------------------|
D|--------------------------------|
A|--------------------------------|
E|-0-00-00-2-22-22-7-77-77-77-----|

G|--------------------------------|
D|--------------------------------|
A|--------------------------------|
E|-0-00-00-2-22-22-4-44-44-44-----|

Chorus

G|----------------------------|
D|----------------------------|
A|-4----------44--------------|
E|---44-77-22----44-77-22-----| x2

G|-----------------------------|
D|-----------------------------|
A|-----------------------------|
E|-0000000022222222------------|

G|----------------------------|
D|----------------------------|
A|-4----------44--------------|
E|---44-77-22----44-77-22-----| x2

G|-----------------------------|
D|-----------------------------|
A|-----------------------------|
E|-000000002222222244444444----|


Guitar Solo 1

G|----------------------------------|
D|----------------------------------|
A|-4-44-44--------------------------|
E|---------4-44-44-7-77-77-2-22-22--|  x2

Verse 3

G|----------------------------------|
D|----------------------------------|
A|-4-44-44--------------------------|
E|---------4-44-44-7-77-77-2-22-22--|  x2

Pre-Chorus

G|--------------------------------|
D|--------------------------------|
A|--------------------------------|
E|-0-00-00-2-22-22-7-77-77-77-----|

G|--------------------------------|
D|--------------------------------|
A|--------------------------------|
E|-0-00-00-2-22-22-4-44-44-44-----|
Chorus

G|----------------------------|
D|----------------------------|
A|-4----------44--------------|
E|---44-77-22----44-77-22-----| x2

G|-----------------------------|
D|-----------------------------|
A|-----------------------------|
E|-0000000022222222------------|

G|----------------------------|
D|----------------------------|
A|-4----------44--------------|
E|---44-77-22----44-77-22-----| x3


G|-----------------------------|
D|-----------------------------|
A|-----------------------------|
E|-0000000022222222------------|

Guitar Solo 2/Outro

G|----------------------------|
D|----------------------------|
A|-4----------44--------------|
E|---44-77-22----44-77-22-----|

G|-----------------------------|
D|-----------------------------|
A|-----------------------------|
E|-0000000022222222------------|

G|----------------------------|
D|----------------------------|
A|-4----------44--------------|
E|---44-77-22----44-77-22-----|

G|------------------------------|
D|------------------------------|
A|------------------4~~~~~~~~~~-|
E|-0000000022222222-------------|

            
            
Suggest correction
Creating personal tab
Creating personal tab
You can edit any tab online and save it as your Personal.

You can edit, replace or remove any tab part or add personal notes – all changes will be seen only by you.

Personal tabs can be accessed anytime from any device, even offline.
Learn more »
Give kudos to tab author, rate the tab!
1 2 3 4 5
comments
print report bad tab
guest
You may want to rate the tab now too:
select rating
Wanna post a correction for this tab? Suggest correction