Oops, an error
Loading. Please wait.

Mkvi tab

1,362 views 15 this week
3 commentsread comments
1 2 3 4 5
x 4
add to favorites
×
Save as Personal and add changes to this tab that will be seen only by you. Learn more ›
×
You can save this tab as Personal to edit and correct it or add notes. All changes will be seen only by you. Learn more »
launch autoscroll
font size
0
reset
how to read this tab
guitar tuner
edit
Autoscroll
slow
fast
+/-
esc
set tempo
stop
Author
Difficulty
-------------------------------------------------------------------------------
                             MKVI - Speedy Ortiz
-------------------------------------------------------------------------------

Tuning: Standard

Intro/Verse:

e|---------------------------------------------------------------------------|
B|---------------------------------------------------------------------------|
G|---------------------------------------------------------------------------|
D|--------1-----------2--------2--4--5---------------------------------------|
A|-----0-----0-----2-----2--4--------------0--1--2---------------------------|
E|--2-----------0-----------------------3------------------------------------|

Chorus:

    B  E  Dbm  G
e|--2-----4----3-------------------------------------------------------------|
B|--4-----5----3-------------------------------------------------------------|
G|--4--1--6----4-------------------------------------------------------------|
D|--4--2--6----5-------------------------------------------------------------|
A|--2--2--4----5-------------------------------------------------------------|
E|--2-----4----3-------------------------------------------------------------|

Interlude:

e|---------------------------------------------------------------------------|
B|---------------------------------------------------------------------------|
G|---------------------------------------------------------------------------|
D|--------1-----------2-----------------------2---------66--55--66-----------|
A|-----0-----0-----2-----2-----3--4--6-----2-----2--44-----------------------|
E|--2-----------0-----------4-----------0------------------------------------|

e|---------------------------------------------------------------------------|
B|---------------------------------------------------------------------------|
G|---------------------------------------------------------------------------|
D|--------2---------66--55--66--------2--------------------------------------|
A|-----2-----2--44-----------------2-----2-----------------------------------|
E|--0---------------------------0--------------------------------------------|

Sadie goes back to verse
Matt/Devin kind of solos over verse, I cant figure that part out

Chorus:

    B  E  Dbm  G
e|--2-----4----3-------------------------------------------------------------|
B|--4-----5----3-------------------------------------------------------------|
G|--4--1--6----4-------------------------------------------------------------|
D|--4--2--6----5-------------------------------------------------------------|
A|--2--2--4----5-------------------------------------------------------------|
E|--2-----4----3-------------------------------------------------------------|

Interlude: Song gets increasingly distorted

e|---------------------------------------------------------------------------|
B|---------------------------------------------------------------------------|
G|---------------------------------------------------------------------------|
D|--------1-----------2-----------------------2---------66--55--66-----------|
A|-----0-----0-----2-----2-----3--4--6-----2-----2--44-----------------------|
E|--2-----------0-----------4-----------0------------------------------------|

e|---------------------------------------------------------------------------|
B|---------------------------------------------------------------------------|
G|---------------------------------------------------------------------------|
D|--------2---------66--55--66--------2--------------------------------------|
A|-----2-----2--44-----------------2-----2-----------------------------------|
E|--0---------------------------0--------------------------------------------|

e|---------------------------------------------------------------------------|
B|---------------------------------------------------------------------------|
G|---------------------------------------------------------------------------|
D|--------1-----------2-----------------------2---------66--55--66-----------|
A|-----0-----0-----2-----2-----3--4--6-----2-----2--44-----------------------|
E|--2-----------0-----------4-----------0------------------------------------|

e|---------------------------------------------------------------------------|
B|---------------------------------------------------------------------------|
G|---------------------------------------------------------------------------|
D|--------2---------66--55--66--------2--------------------------------------|
A|-----2-----2--44-----------------2-----2-----------------------------------|
E|--0---------------------------0--------------------------------------------|

Chorus:

    B  E  Dbm  G
e|--2-----4----3-------------------------------------------------------------|
B|--4-----5----3-------------------------------------------------------------|
G|--4--1--6----4-------------------------------------------------------------|
D|--4--2--6----5-------------------------------------------------------------|
A|--2--2--4----5-------------------------------------------------------------|
E|--2-----4----3-------------------------------------------------------------|

This part I really have no clue, I think they just play the main riff in a higher octave
If someone wants to post their version of it, I would really appreciate it, maybe it is something
like this though?

e|---------------------------------------------------------------------------|
B|---------------------------------------------------------------------------|
G|--4--3--4--3--6-----4--3---------------------------------------------------|
D|-----------------7---------------------------------------------------------|
A|---------------------------------------------------------------------------|
E|---------------------------------------------------------------------------|

And that is basically the whole song, the other 3 minutes is just increasing chaos and distortion based
around those chords and riffs

            
            
Suggest correction
Creating personal tab
Creating personal tab
You can edit any tab online and save it as your Personal.

You can edit, replace or remove any tab part or add personal notes – all changes will be seen only by you.

Personal tabs can be accessed anytime from any device, even offline.
Learn more »
comments
print report bad tab
3 comments total.
+2 reply
2bitsss 10 Oct 05, 2014 12:45 AM

Thanks for posting, love this song!

0 reply
BernieSanders94 242 Nov 23, 2016 11:22 PM, edited on November 24 2016, 04:27 am

I love this song, great tab. I think they play the ending like:

E |----------------|----------------|----------------|----------------||
B |----------------|----------------|--------5-------|----------------||
G |-----------3----|-----3----------|-----4s----4----|--------9-------||
D |--4--2--4-------|--2-----4--2----|--4-------------|--5s-9-----9s---||
A |----------------|--2-------------|----------------|----------------||
E |----------------|----------------|----------------|----------------||

0 reply
jorder247 31 5 days ago

the ending lead part is more like this:

E |----------------|----------------|----------------|----------------||
B |----------------|----------------|--------5-------|-------5--------||
G |-----------3b5b3|----------------|-----4----4-----|----4------4----||
D |--4--2--4-------|-------4--2-----|--4s6-----------|--5-------------||
A |----------------|----------------|----------------|----------------||
E |----------------|----------------|----------------|----------------||

guest
You may want to rate the tab now too:
select rating
Wanna post a correction for this tab? Suggest correction