Oops, an error
Loading. Please wait.
338 views 1 this week
no commentswrite comment
1 2 3 4 5
2 more votes to show rating
add to favorites
×
Save as Personal and add changes to this tab that will be seen only by you. Learn more ›
×
You can save this tab as Personal to edit and correct it or add notes. All changes will be seen only by you. Learn more »
launch autoscroll
font size
0
reset
how to read this tab
guitar tuner
edit
Autoscroll
slow
fast
+/-
esc
set tempo
stop
Aquí les va un tesoro del rock, espero que lo aprovechen por que creo que esta bueno,
practíquenlo mucho por que es un poquito difícil de sacar al principio.
 Les hago recordar que si van a dejar tablatura de spinetta,
dejen como se hacen los acordes que el utiliza.
PD: Este tablatura se la dedico,
a todas las maravillosas personas que tuve la gran suerte de conocer este año,
y el año pasado, a ellas les deseo todo lo mejor de todo corazón.
Que viva Dagón, algún día iremos al mar, que viváaaaaaaaaaaaaaaaa

Riff1

E---|--------------------------------------------|----------------------
B---|--------------------------------------------|----------------------
G---|--------------------------------------------|----------------------
D---|-----------------------------------2--1-----|----------------------
A---|-----------------------0-----0--2--------2--|----------------------
E---|--0--0-----0--4--2--0-----------------------|----------------------

E---------------------------------------------------|-------------------
B---------------------------------------------------|-------------------
G---------------------------------------------------|-------------------
D------------------------------------------2--1-----|-------------------
A------------------------0-----0--2--0--2--------2--|-------------------
E---0--0-----0--4--2--0-----------------------------|-------------------

E---------------------------------------------|-------------------------
B---------------------------------------------|-------------------------
G---------------------------------------------|-------------------------
D------------------------------------2--1-----|-------------------------
A------------------------0-----0--2--------2--|-------------------------
E---0--0-----0--4--2--0-----------------------|-------------------------


 Un tiempo menos que antes: Esto es lo difícil  del riff
E---------------------|-------------------------------------------------
B---------------------|-------------------------------------------------
G------------------2--|-------------------------------------------------
D------------------2--|-------------------------------------------------
A------------------0--|-------------------------------------------------
E---0--0--4--2--0-----|-------------------------------------------------

Riff2
Esta parte se solo se toca así es estas partes:-Casualmente yo te conoci...
                                               -Luego te mudaste con tu sequito...
                                               -De nuestro amor tan solo me queda hoy....
Este es el ejemplo de cómo se tocan estas partes:

         Casualmente yo te...       conocí...
E----------------------------------------------------|
B--8--8-----------------------2--2-------------------|
G--7--7-----------------------0--0-------------------|
D--6--6-----------------------2--2-------------------|
A--7--7-----------------------0--0-------------------|
E--------------------------------------------5-3-5-3-|
   E7/9#                       LA7

Riff3
Las demás estrofas tienen un pequeño pique, que creo que es este,
háganlo de una manera rápida para que salga, este es el ejemplo:

         una noche      como hoy...
E--------------------------------------------------------------|
B--8--8--------------10/12\10h8-10h8---------2--2--------------|
G--7--7------------------------------9-------0--0--------------|
D--6--6--------------------------------------2--2--------------|
A--7--7--------------------------------------0--0--------------|
E------------------------------------------------------5-3-5-3-|

                               Letra:
Riff1

Riff2
Casualmente yo te conocí

Riff3 en toda esta parte:
-Una noche como hoy
-Tu vestido electrico me hirio
-Vos bailabas y decias
Shake it, shake it, shake it, shake it baby.

Riff1

Riff2
Luego te mudaste con tu sequito

Riff3
A mi lujosa mansion
Hasta casi entro en tu narcogate
Vos bailabas y decias
Shake it, shake it, shake it, shake it baby.

Este es el pique que va despues de esta parte:
E-----------------------------------------------------------------|
B---10/12-10-8---8-10-8-10-8-10-10/12-10-8-------8----10/12-10-8--|
D--------------9----------------------------9-7-----9-------------|
G-----------------------------------------------------------------|
A-----------------------------------------------------------------|
E-----------------------------------------------------------------|

E---12b--------12-10----------12-10----------12-10----------12-10-----------|
B--------10-12-------12-10-12-------12-10-12-------12-10-10-------12-10-12--|
G---------------------------------------------------------------------------|
D---------------------------------------------------------------------------|
A---------------------------------------------------------------------------|
E---------------------------------------------------------------------------|

E-12/17b-15-17-15-17-15-17-15-17-15-17-15--------------|
B-----------------------------------------17-15-17-----|
G------------------------------------------------------|
D------------------------------------------------------|
A------------------------------------------------------|
E------------------------------------------------------|

E-----------------------------9-10-9-------10b-----------|
B---10/12\-10-8-10---12-10-12--------12-10-----10/12-10--|
---------------------------------------------------|
D--------------------------------------------------------|
A--------------------------------------------------------|
E--------------------------------------------------------|

E-----------------------------|
B---8---8---------------------|
G-----9---9-7-9-9-7-----------|
D-------------------9-7-5-----|
A-------------------------7---|
E-----------------------------|

Riff1

Riff2
De nuestro amor tan solo me queda hoy
Riff3: En toda esta parte

Un absurdo secador
Me fundiste hasta el BMW
Y yo lo que hago es cantar cheques
Cheques, cheques, cheques, cheques

Ahora viene este pique:

E-----------12---------12----------12---------12/17b-15-------12-|
B---12-10-8----12-10-8----12-10-12----12-10-8-----------12-10----|
G----------------------------------------------------------------|
D----------------------------------------------------------------|
A----------------------------------------------------------------|
E----------------------------------------------------------------|

E----------------10----------------------------------------------7--|
B---10/12\--10-8----12-10-12-10/12-8-10-8-------8-10/12\-10-8-10----|
G-----------------------------------------9---9---------------------|
D-------------------------------------------------------------------|
A-------------------------------------------------------------------|
E-------------------------------------------------------------------|

E---9-7-10-9-7----7h9h10h9h7-------10/12b--
B--------------10------------12-10---------
G------------------------------------------
D------------------------------------------
A------------------------------------------
E------------------------------------------

E-----------12------------------12-10----------12-10----------12-10----------12-10-
B---12-10-8----12\10-8-10-10/12-------12-10-12-------12-10-12-------12-10-12-------
G----------------------------------------------------------------------------------
D----------------------------------------------------------------------------------
A----------------------------------------------------------------------------------
E----------------------------------------------------------------------------------

E------------12-17b--12/10-10----12\10h7---10-12b----------12-------------------12/15b----------|
B---12-10-12------------------12--------10---------12h1012----12\10-8-10-12h10---------15/17b17-|
G-----------------------------------------------------------------------------------------------|
D-----------------------------------------------------------------------------------------------|
A-----------------------------------------------------------------------------------------------|
E-----------------------------------------------------------------------------------------------|
 h - hammer-on (ligado)
 v - vibrato
 / - slide (deslizar hacia abajo)
 \ - slide (deslizar hacia arriba)
 b - bending (levantar la cuerda)
 r - release (bajar la cuerda)

p.d: Para sugerencias, felicitaciones, jodas, escribanme a mi correo : petalo_de_sal@

            
            
Suggest correction
Creating personal tab
Creating personal tab
You can edit any tab online and save it as your Personal.

You can edit, replace or remove any tab part or add personal notes – all changes will be seen only by you.

Personal tabs can be accessed anytime from any device, even offline.
Learn more »
Give kudos to tab author, rate the tab!
1 2 3 4 5
comments
print report bad tab
guest
Wanna post a correction for this tab? Suggest correction