Oops, an error
Loading. Please wait.

I Got A Line On You tab

by Spirit
10,857 views 9 this week
2 commentsread comments
1 2 3 4 5
1 last vote to show rating
add to favorites
×
Save as Personal and add changes to this tab that will be seen only by you. Learn more ›
×
You can save this tab as Personal to edit and correct it or add notes. All changes will be seen only by you. Learn more »
launch autoscroll
font size
0
reset
how to read this tab
guitar tuner
edit
Autoscroll
slow
fast
+/-
esc
set tempo
stop
Author
Difficulty
-------------------------------------------------------------------------------
		I got a line on you - Spirit
-------------------------------------------------------------------------------
Tabbed by:Josh Engel
Email:joshengel@Fuse.net

Tuning:Standard
   Intro                   x2
e|--------------------------|
B|--------------------------|
G|----------7-9---------9-7-|
D|----------7-9---------9-7-|
A|--------------------------|
E|--7--7--7-----7--7--7-----|


  Verse                    x4  Chorus
     x2
e|--------------------------|-(3)-(3)---------(5)-(5)---------(7)-(7)-----------------------------|
B|--------------------------|-(3)-(3)---------(5)-(5)---------(7)-(7)-----------------------------|
G|----------7-9---------9-7-|--4---4--4-4-4-4--6---6--6-6-6-6--8---8--8-8-8-8-8-8-8-8-8-8-8-8-----|
D|----------7-9---------9-7-|--5---5--5-5-5-5--7---7--7-7-7-7--9---9--9-9-9-9-9-9-9-9-9-9-9-9-----|
A|--------------------------|--5---5--5-5-5-5--7---7--7-7-7-7--9---9--9-9-9-9-9-9-9-9-9-9-9-9-----|
E|--7--7--7-----7--7--7-----|--3---3--3-3-3-3--5---5--5-5-5-5--7---7--7-7-7-7-7-7-7-7-7-7-7-7-----|

  Play verse - Chorus x2

  The fills Seem to be improv in the key of E blues Scale(Pentatonic??)

  During solo Bass Plays Verse Riff you can also hear the keyboard hitting a B over and 
over

  Note: my take on solo(help me out if u Know better)
        I also think its two guitars?

   solo	                                                    x2
e|------------15-15-15-15---------------15-15----15\-----------|
B|------15-17-------------17p15-15-17~ -15-15-15-15\-15-14-15--|
G|---/16--------------------------------------16---------------|
D|---------------------------------------------------12-11-12--|
A|-------------------------------------------------------------|
E|-------------------------------------------------------------|

                  x3            Pull offs fast
e|-----------------|----------------------------------------|
B|------12---14-12-|----------------------------------------|
G|------12---14-12-|-14b-12---------------------------------|
D|--14~ ---14------|--------14--14p12-14p12-14p12-14p12-14~ |
A|-----------------|----------------------------------------|
E|-----------------|----------------------------------------|

 After Solo
	chorus
	verse - chorus
	chorus a bunch stop and drop a piano out a window

| /  slide up
| \  slide down
| h  hammer-on
| p  pull-off
| ~  vibrato
| +  harmonic
| x  Mute note
===============================================================================

            
            
Suggest correction
Creating personal tab
Creating personal tab
You can edit any tab online and save it as your Personal.

You can edit, replace or remove any tab part or add personal notes – all changes will be seen only by you.

Personal tabs can be accessed anytime from any device, even offline.
Learn more »
Give kudos to tab author, rate the tab!
1 2 3 4 5
comments
print report bad tab
2 comments total.
0 reply
ShowerCap 10 May 21, 2013 04:24 AM

I just worked the solo out with the aid of "magic" (slowing it down to one third of its speed) and it's more simple than it sounds. It sounds like two guitars double-tracked but playing almost the same thing.

N(N) is a bend up to the bracketed number



Play this part twice:

e:-----12--14(16)--14(16)--16(14)--12-12-12-------16-16-15-16-----10-09-10-----
b:--12--------------------------------------12----15-15-14-15-----09-08-09-----
g:-----------------------------------------------------------------------------
d:-----------------------------------------------------------------------------
a:-----------------------------------------------------------------------------
E:-----------------------------------------------------------------------------

then

e:-----------------------------------------------------------------------------
b:------------12----14--12-----12------14(16)--12-----12-------14(16)-12-------
g:------------12----14--12-----12------14(16)--12-----12-------14(16)-12-------
d:---12--14-----14--------14-------14--------------14------14-------------14---
a:/14--------------------------------------------------------------------------
E:-----------------------------------------------------------------------------

e:-----------------------12----------------------------------------------------
b:---------12--15------------15------------------------------------------------
g:--12(14)--------12(14)--------12(14)-----------------------------------------
d:-----------------------------------------------------------------------------
a:-----------------------------------------------------------------------------
E:-----------------------------------------------------------------------------

The first two chunks are the most accurate, have fun.

0 reply
ShowerCap 10 May 21, 2013 04:26 AM

Ah FFS, it looked fine in notepad!

guest
You may want to rate the tab now too:
select rating
Wanna post a correction for this tab? Suggest correction