Oops, an error
Loading. Please wait.

Uncle Jack chords

by Spirit
319 views 1 this week
no commentswrite comment
1 2 3 4 5
x 7
add to favorites
×
Save as Personal and add changes to this tab that will be seen only by you. Learn more ›
×
You can save this tab as Personal to edit and correct it or add notes. All changes will be seen only by you. Learn more »
launch autoscroll
font size
0
reset
transpose
0
reset
display chords
guitar tuner
edit
Autoscroll
slow
fast
+/-
esc
set tempo
stop
Strumming
There is no strumming pattern for this song yet. and get +5 IQ
SONG:   UNCLE JACK
ARTIST: SPIRIT
TAB BY: DON CZARSKI
EMAIL:  GUITARZAN7@HOTMAIL.COM


              UNCLE JACK
                SPIRIT


INTRO:

          F     C   F     Bb  C
E --------------------------------
B --------------------------------
G --------------------------------
D --------------------------------
A --------------------------------
E --7\----0-0-0-7---0-0-0-5-5-7---

     F    C   F     Bb  C
E --------------------------
B --------------------------
G --------------------------
D --------------------------
A --------------------------
E --0-0-0-7---0-0-0-5-5-7---


VERSE:
Dm     A      Bb      C
Gazing on the sea we sized
 Dm      A      Bb        Am
Falling down before your eyes
        
He can 

     G
E ---------------
B ---8/10\8-6-8--
G ---------------
D ---------------
A ---------------
E ---------------  
                    G
  show you        show you

     F    C   F     Bb  C
E --------------------------
B --------------------------
G --------------------------
D --------------------------
A --------------------------
E --0-0-0-7---0-0-0-5-5-7---

                             sl
    F        C     F      Bb / C
   Have you met my Uncle Jack
                             sl
    F        C     F      Bb / C
   Have you met my Uncle Jack



 Dm     A        Bb    C
Wonder what your all about
Dm       A       Bb      F
He can bring the inside out

He can 

     G
E ---------------
B ---8/10\8-6-8--
G ---------------
D ---------------
A ---------------
E ---------------  
                    G
  show you        show you


BREAK:
G        Dm       Bb     Am        G
So many lives to live I heard him say
 G               Dm      Bb       Am      G
But some people live to give themselves away

To find peace some mind

Waiting where they can’t get


VERSE:
  F        C        F     Bb
Standing there he’s so deceiving 
 F       C     F      Bb
Has he been or is he leaving

 Dm     A       Bb         F
Looking in his sea green eyes
Dm     A         Bb      F
Uncle Jack will tell no lies
         D
Can you see him


INSTRUMENTAL/SOLO:
D F  G F  D F D    
D F Dm F Dm F  
F    D F  D F
D F Dm F D C D C D


BREAK:
G        Dm       Bb     Am        G
So many lives to live I heard him say
 G               Dm      Bb      Am       G
But some people live to give themselves away

To find peace some mind 
                          
Waiting where they can’t get

     F    C   F     Bb  C
E --------------------------
B --------------------------
G --------------------------
D --------------------------
A --------------------------
E --0-0-0-7---0-0-0-5-5-7---
                             sl
    F        C     F      Bb / C
   Have you met my Uncle Jack

Dm A       Bb          F
I want to take you in hand
Dm       A               Bb     F
Let you see and you will understand
       

I can 
     G
E ---------------
B ---8/10\8-6-8--
G ---------------
D ---------------
A ---------------
E ---------------  
    show you  

            
            
Suggest correction
Creating personal tab
Creating personal tab
You can edit any tab online and save it as your Personal.

You can edit, replace or remove any tab part or add personal notes – all changes will be seen only by you.

Personal tabs can be accessed anytime from any device, even offline.
Learn more »
comments
print report bad tab
guest
You may want to rate the tab now too:
select rating
Wanna post a correction for this tab? Suggest correction