Oops, an error
Loading. Please wait.

You Know My Name bass

by Spm
454 views 3 this week
no commentswrite comment
1 2 3 4 5
3 more votes to show rating
add to favorites
×
Save as Personal and add changes to this tab that will be seen only by you. Learn more ›
×
You can save this tab as Personal to edit and correct it or add notes. All changes will be seen only by you. Learn more »
launch autoscroll
font size
0
reset
guitar tuner
edit
Autoscroll
slow
fast
+/-
esc
set tempo
stop
                                 SPM
                            YOU KNOW MY NAME

Not all 100 percent but still fun to play with.

-------------------------|
-------------------------|
-------------------------|
-------------------------|
-------------------------|
--12-0--12-10--8--8-7-5--|

--------------------------------------------|
--------------------------------------------|
--------------------------------------------|
--------------------------------------------|
---------------------------------------3/5--|
--0~-00~-0~-7~-77~-7~-8~-88~-8~-5~-5-5------|

--------------------------------------------|
--------------------------------------------|
--------------------------------------------|
--------------------------------------------|
--------------------------------------------|
--0~-00~-0~-7~-77~-7~-8~-88~-8~-5~-5-7-3-5--|
         This is the part that's not right. :(

--------------------------------------------|
--------------------------------------------|
--------------------------------------------|
--------------------------------------------|
---------------------------------------3/5--|
--0~-00~-0~-7~-77~-7~-8~-88~-8~-5~-5-5------|

---------------------------------------------|
---------------------------------------------|
---------------------------------------------|
---------------------------------------------|
---------------------------------------------|
--0~-00~-0-12-10~-1010~-10-8-88--8--88-77-5--|

This is all you do but it changes once in the song. 
At one part it changes a little but then its all the same.
---------|
---------|
---------|
---------|
---------|
--10h12--| Then the same as last time.

   
P&P

            
            
Suggest correction
Creating personal tab
Creating personal tab
You can edit any tab online and save it as your Personal.

You can edit, replace or remove any tab part or add personal notes – all changes will be seen only by you.

Personal tabs can be accessed anytime from any device, even offline.
Learn more »
Give kudos to tab author, rate the tab!
1 2 3 4 5
comments
print report bad tab
guest
You may want to rate the tab now too:
select rating
Wanna post a correction for this tab? Suggest correction