Oops, an error
Loading. Please wait.

Thoughts Pt 2 chords

223 views 3 this week
no commentswrite comment
1 2 3 4 5
x 4
add to favorites
×
Save as Personal and add changes to this tab that will be seen only by you. Learn more ›
×
You can save this tab as Personal to edit and correct it or add notes. All changes will be seen only by you. Learn more »
launch autoscroll
font size
0
reset
transpose
0
reset
display chords
guitar tuner
edit
Autoscroll
slow
fast
+/-
esc
set tempo
stop
Strumming
There is no strumming pattern for this song yet. and get +5 IQ
------------------------------------------------------------------------------------------------------------
                                          Artist - Spock's Beard
                                         ************************
                                          Song - Thoughts Pt. 2 
                                         ***********************
                                             Album - V (2000)   
                                            ******************
                                           Tabbed By - Ayreon77
                                          **********************
------------------------------------------------------------------------------------------------------------
Tuning = Standard

--------------
CAPO 1st FRET
--------------

ACOUSTIC
*********
INTRO
******                                Gm              Dm                                  Gm
    Dm                                               
                                        h p                                                 h   s   s
e|-------1-0-|-------1-0-|-------1-0-|-0-1-0---------|-------1-0-|-------1-0-|-------1-0-|-0-1-1\3-3\5-|
B|-----3-----|-----3-----|-----3-----|-------3-1-0-1-|-----3-----|-----3-----|-----3-----|-------------|
G|---2-------|---2-------|---2-------|---------------|---2-------|---2-------|---2-------|-------------|
D|-0---------|-0---------|-0---------|---------------|-0---------|-0---------|-0---------|-------------|
A|-----------|-----------|-----------|---------------|-----------|-----------|-----------|-------------|
E|-----------|-----------|-----------|---------------|-----------|-----------|-----------|-------------|


--------------------------------------
CHORUS
*******
Dm            Am
I thought I'd come to you and say
Gm                      Am        C
All the things I had on my mind
    h p       h
e|-0-1-0---0-0-1-0-----------|
B|-------3---------1---------|
G|-------------------2-0---0-|
D|-----------------------4---|
A|---------------------------|
E|---------------------------|

Dm           Am
I thought it might be really great
   Gm                    Am      Dm
To show you how I feel inside
       Gm     C
Then I think ... MAYBE NOT ...


--------------------------------------
00:35
ELECTRIC GUITAR - No Capo
****************
e|---------|-------|-------|---------|
B|---------|-------|-------|---------|
G|---------|-------|-------|-------3-|
D|-1-------|-------|-----3-|-6-3-6---|
A|---1-4---|-----1-|-4-6---|---------|
E|-------4-|-2-4---|-------|---------|X8


01:08
e|---------|-------|-------|---------|
B|---------|-------|-------|---------|
G|---------|-------|-------|-------5-|
D|-3-------|-------|-----5-|-8-5-8---|
A|---3-6---|-----3-|-6-8---|---------|
E|-------6-|-4-6---|-------|---------|X2


--------------------------------------
NC
**
VERSE 1
********
You wouldn't speak to me
I would be left behind
We'd be through if you knew
All the things in my mind

01:24
e|---------|-------|-------|---------|
B|---------|-------|-------|---------|
G|---------|-------|-------|-------5-|
D|-3-------|-------|-----5-|-8-5-8---|
A|---3-6---|-----3-|-6-8---|---------|
E|-------6-|-4-6---|-------|---------|X2


--------------------------------------
NC
**
VERSE 2
********
I'd probably feel worse
You'd probably scream and shout
Scratch and curse or even worse
Quietly shut me out


--------------------------------------
01:41
KEYBOARDS
**********

01:50 - Vol
e|--------s--------s---------s----------s---|
B|-16~~~~~\11~~~~~~\16~~~~~~~\11~~~~~~~~\18-|
G|------------------------------------------|
D|------------------------------------------|
A|------------------------------------------|
E|------------------------------------------|


--------------------------------------
CHORUS                                   
*******                                         
Dm            Am                           
I thought I'd come to you and say                               
Gm                   Dm                        
Everything within my heart 

|-0-1-3-1-0---|
|-3---------1-|
|-2-----------| 
|-0-----------|
|-------------|
|-------------|     
        
Dm           Am
I just can't look the other way
    Gm                  F Dm
And wait for us to grow apart
       Gm     C
Then I think ... WHAT'S THE POINT?


--------------------------------------
BASS
*****
ORCHESTRA
**********
BASS
*****
ORCHESTRA
**********

--------------------------------------
03:33
ELECTRIC GUITAR
****************
e|---------|-------|-------|---------|
B|---------|-------|-------|---------|
G|---------|-------|-------|-------5-|
D|-3-------|-------|-----5-|-8-5-8---|
A|---3-6---|-----3-|-6-8---|---------|
E|-------6-|-4-6---|-------|---------|X4


--------------------------------------
NC
**
VERSE 3
********
This might just go away
I think I'll think some more
Either way I will pay
And suffer for evermore
You wouldn't speak to me
I would be left behind
We'd be through if you knew
All the things in my mind


--------------------------------------
CHORUS
*******
Dm            Am
I thought I'd come to you and say
Gm                         Dm
All the things I had on my mind ...


ENJOY...............

            
            
Suggest correction
Creating personal tab
Creating personal tab
You can edit any tab online and save it as your Personal.

You can edit, replace or remove any tab part or add personal notes – all changes will be seen only by you.

Personal tabs can be accessed anytime from any device, even offline.
Learn more »
comments
print report bad tab
guest
You may want to rate the tab now too:
select rating
Wanna post a correction for this tab? Suggest correction