Oops, an error
Loading. Please wait.

Closer You And I tab

version 2
version 2

Whole song

10,048 views 3 this week
1 commentread comment
1 2 3 4 5
2 more votes to show rating
add to favorites
×
Save as Personal and add changes to this tab that will be seen only by you. Learn more ›
×
You can save this tab as Personal to edit and correct it or add notes. All changes will be seen only by you. Learn more »
launch autoscroll
font size
0
reset
how to read this tab
guitar tuner
edit
Autoscroll
slow
fast
+/-
esc
set tempo
stop
Author
try niyo nalang po para malaman niyo kung tama
kung may mali man po
wag po sana kayo magmura
pakisagbi nalang po kung may mali
slmat
pakirate narin
:D
tinapos ko lang ung unang version.. ung ver 1 


Tuning : Standard

Intro:

e|------------9-7-------------------------------------|
B|-7-7---7-7------11-12-----7--9--7--9--7--9----------|
G|-----8----------------------------------------------|
D|----------------------------9-----9-----9--8-9-11---|
A|----------------------------------------------------|
E|----------------------------------------------------|

Verse:

e|----------------------------------------------------|
B|---------------7---9-7---9-7---9--------------------|
G|----------------------------------------------------|
D|-99999--66666----9-----9-----9----8-9-11------------| x2
A|-99999--66666---------------------------------------|
E|-77777--44444---------------------------------------|

Refrain:

e|----------------------------------------------------|
B|----------------------------------------------------|
G|--6666-8888------6666------6666---------------------|
D|--6666-8888-6666-6666-2222-6666-44444444------------|
A|--4444-6666-6666-4444-2222-4444-44444444------------|
E|------------4444------0000------22222222------------|

Chorus:

e|-----------------------------------------------------|
B|-----------------------------------------------------|
G|-8888------6666------4444------6666------------------| 
D|-8888-6666-6666-4444-4444-2222-6666-4~~--------------|
A|-6666-6666-4444-4444-2222-2222-4444-4~~--------------|
E|------4444------2222------0000------2~~--------------|

Interlude :

Guitar 1

e|-----------------------------------------------------------------------|
B|-----------------------------------------------------------------------|
G|----11---11---11-------------------------11-11-11-11-11-11-------------|
D|-13----11---9----8~--(FILL IN  ng lead)--------------------8-9-11------|
A|-----------------------------------------------------------------------|
E|-----------------------------------------------------------------------|

Guitar 2

e|-11-12-11-------------------------------------------------|
B|----------12----14-12----14-12----14-12-------------------|
G|-------------11-------11-------11-------11----------------|
D|--------------------------------------------8-9-11--------|
A|----------------------------------------------------------|
E|----------------------------------------------------------|


Verse:

Guitar 1
(palm mute ung power chords)

e|----------------------------------------------|
B|----------------------------------------------|
G|--------------------999999999999--------------|
D|-99999--66666-22222-999999999999--------------| x2
A|-99999--66666-22222-777777777777--------------|
E|-77777--44444-00000---------------------------|

(palm mute ung power chords)
Guitar 2
e|----------------------------------------------------|
B|---------------7---9-7---9-7---9--------------------|
G|----------------------------------------------------|
D|-99999--66666----9-----9-----9----8-9-11------------| x2
A|-99999--66666---------------------------------------|
E|-77777--44444---------------------------------------|

Refrain:

e|----------------------------------------------------|
B|----------------------------------------------------|
G|--6666-8888------6666------6666---------------------|
D|--6666-8888-6666-6666-2222-6666-44444444------------|
A|--4444-6666-6666-4444-2222-4444-44444444------------|
E|------------4444------0000------22222222------------|

Chorus:

e|-----------------------------------------------------|
B|-----------------------------------------------------|
G|-8888------6666------4444------6666------------------| 
D|-8888-6666-6666-4444-4444-2222-6666-4~~--------------| x2
A|-6666-6666-4444-4444-2222-2222-4444-4~~--------------|
E|------4444------2222------0000------2~~--------------|

Outro :

Guitar 1

e|-----------------------------------------------------------------------|
B|-----------------------------------------------------------------------|
G|----11---11---11-------------------------11-11-11-11-11-11-------------|
D|-13----11---9----8~--(FILL IN  ng lead)--------------------8-9-11------|
A|-----------------------------------------------------------------------|
E|-----------------------------------------------------------------------|

Guitar 2

e|-11-12-11-------------------------------------------------|
B|----------12----14-12----14-12----14-12-------------------|
G|-------------11-------11-------11-------11----------------|
D|--------------------------------------------8-9-11--------|
A|----------------------------------------------------------|
E|----------------------------------------------------------|



            
            
Suggest correction
Creating personal tab
Creating personal tab
You can edit any tab online and save it as your Personal.

You can edit, replace or remove any tab part or add personal notes – all changes will be seen only by you.

Personal tabs can be accessed anytime from any device, even offline.
Learn more »
Give kudos to tab author, rate the tab!
1 2 3 4 5
comments
print report bad tab
1 comment total.
0 reply
Michae1988 10 Apr 25, 2009 09:43 PM

try ko 2 kung tama
post ulit ako ng comments kung tama

guest
You may want to rate the tab now too:
select rating
Wanna post a correction for this tab? Suggest correction