Oops, an error
Loading. Please wait.

Closer You And I tab

version 3
version 3

Whole song

4,378 views 1 this week
no commentswrite comment
1 2 3 4 5
3 more votes to show rating
add to favorites
×
Save as Personal and add changes to this tab that will be seen only by you. Learn more ›
×
You can save this tab as Personal to edit and correct it or add notes. All changes will be seen only by you. Learn more »
launch autoscroll
font size
0
reset
how to read this tab
guitar tuner
edit
Autoscroll
slow
fast
+/-
esc
set tempo
stop
Author
Difficulty
This is Closer You And I by Sponge Cola. 

This is my first Tab please excuse any mistakes. If any problems tell me ^.^

~OnlyGabs†az!~♥




Standard Tuning : EADGBe




Chords USED:

   Bb  Dm  Gm  Eb  C   F   (alternativley use normal chords)
e|---|---|---|---|---|---|
B|---|---|---|---|---|---|
G|-3-|-7-|---|-8-|-5-|---|
D|-3-|-7-|-5-|-8-|-5-|-3-|
A|-1-|-5-|-5-|-6-|-3-|-3-|
E|---|---|-3-|---|---|-1-|





Intro: (##)

e|------------8-6-------------------------------------|
B|-6-6---6-6------10-11-----6--8--6--8--6--8----------|
G|-----7----------------------------------------------|
D|----------------------------8-----8-----8--8-7-9-10-|
A|----------------------------------------------------|
E|----------------------------------------------------|


Verse:

e|----------------------------------------------------|
B|---------------6---8-6---8-6---8--------------------|
G|-3--7-----------------------------------------------|
D|-3--7--5---------8-----8-----8---8-7-8-10-----------| x2
A|-1--5--5--------------------------------------------|
E|-------3--------------------------------------------|


Verse:
Bb             Dm             Gm
Hey, there's a look in your eyes
       (##)   Eb                 (F)
Must be love at first sight
Bb              Dm        Gm
You were just part of a dream
       (##)   Eb                 (F)
Nothing more so it seemed


            Cm                      Dm
But my love couldn't wait much longer
                Gm                         C
Just can't forget the picture of your smile
                Eb           C
'Coz every time I close my eyes
            F
You come alive


Chorus:
              D                   Gm
The closer I get to touching you
               C              F
The closer I get to loving you
               Bb
Give it a time
                         Eb
Just a little more time
                 C    F
We'll be together

you and i


Interlude :

Guitar 1

e|-----------------------------------------------------------------------|
B|-----------------------------------------------------------------------|
G|----10---10---10-------------------------10-10-10-10-10-10-------------|
D|-12----10---8----7~--(Guitar II)---------------------------7-8-10------|
A|-----------------------------------------------------------------------|
E|-----------------------------------------------------------------------|

Guitar 2

e|-10-11-10-------------------------------------------------|
B|----------11----13-11----13-11----13-11-------------------|
G|-------------10-------10-------10-------10----------------|
D|--------------------------------------------7-8-10--------|
A|----------------------------------------------------------|
E|----------------------------------------------------------|

Verse 2: (same as First Verse)
Then could I love you more
So much stronger than before
Why does it seem like a dream
So much more so it seems
I guess I found my inspiration
With just one smile, you take my breath away
So hold me close
And say you'll stay with me now



Chorus:
              D                     Gm
The closer I get to touching you
              C              F
The closer I get to loving you
               Bb
Give it a time
                         Eb
Just a little more time
                 C    F
We'll be together


                 D
Every little smile
                 Gm
That special smile
                     C
The twinkle in your eye
               F
In a little while
            Bb
Give it a time
                    Eb
Just a little more time
                 Cm    F
So we can get closer
             
You and I


Outro:

e|-----------------------------------------------------------------------|
B|-----------------------------------------------------------------------|
G|----10---10---10-------------------------10-10-10-10-10-10-------------|
D|-12----10---8----7~--(Guitar II)---------------------------7-8-10------|
A|-----------------------------------------------------------------------|
E|-----------------------------------------------------------------------|

Guitar 2

e|-10-11-10-------------------------------------------------|
B|----------11----13-11----13-11----13-11-------------------|
G|-------------10-------10-------10-------10----------------|
D|--------------------------------------------7-8-10--------|
A|----------------------------------------------------------|
E|----------------------------------------------------------|

            
            
Suggest correction
Creating personal tab
Creating personal tab
You can edit any tab online and save it as your Personal.

You can edit, replace or remove any tab part or add personal notes – all changes will be seen only by you.

Personal tabs can be accessed anytime from any device, even offline.
Learn more »
Give kudos to tab author, rate the tab!
1 2 3 4 5
comments
print report bad tab
guest
You may want to rate the tab now too:
select rating
Wanna post a correction for this tab? Suggest correction