Oops, an error
Loading. Please wait.

Di Na Mababawi tab

version 5
version 5
27,904 views 15 this week
6 commentsread comments
1 2 3 4 5
x 8
add to favorites
×
Save as Personal and add changes to this tab that will be seen only by you. Learn more ›
×
You can save this tab as Personal to edit and correct it or add notes. All changes will be seen only by you. Learn more »
launch autoscroll
font size
0
reset
how to read this tab
guitar tuner
edit
Autoscroll
slow
fast
+/-
esc
set tempo
stop
Author
Song: Di Na Mababawi
Artist: Sponge Cola
Tabbed by: leipogue
Email: leipogue@yahoo.com

Chords:
G    320023
A    x02220
Bm   x24432
D    xx0232
Em   022000
A/C# x4222x
D7   xx0212
Adim x01212
Bm7  xx4435

Intro:
Bm7

Verse:
          Bm    A/C#      D
Ngayo'y aking inuunawang pilit
 D                Bm      A/C#    D
Mga pagkukulang kong iyong ginigiit
D             Bm       A/C#       D      A/C#
Sana'y malaman mo, na tanging ikaw lamang
      Bm         A
Ang aking iniintindi,

do verse chords:
Nakatanim pa  sa'king ala-ala
Pangako mong manantili ka
Kaya't paglisan mo'y naiwan, ang pusong ito na ngayo'y
Bitin na bitin

Chorus:

  G             A                  Bm
'Di mo na mababawi, iniwang sakit
            D7             G
Sa mga salitang binitiwan mo
G             A                    Bm
Hindi ba't ikaw na rin, ang nagpasya, nagtakda
             Adim         Em         A             Bm
At s'yang unang umiwas, bakit nga ba ako'y yong pinaasa?

do verse chords
Nasa king guni-guni, malamig mong tinig
Kasabay ng hagin na dumarampi
Na para bang ika'y nariyan, sa aking paligid
Tahimik na nagmamasid

Repeat chorus

Bridge
Bm A                  G              Bm            A
  Nahulog na'ng mga ulap, buwan at araw, mga bituin
A                   G           Bm
Ang ginugol na panaho'y nasaan?
         G      Bm   A
Di ba't sayang naman Giliw?

Yeah,,Yeah,,Yeah

Solo-
G ...  Bm A D 3x Bm A
                                    Bm   A/C#   D
e|-------------3---------------------2-----x----2--------------|
B|---------3---3------7h8p7----------3-----2----3--------------|
G|---4---4---4------7--------9-9/11--4-----2----2--------------|
D|---5-5-----------------------------4-----2----0--------------|
A|-----------------------------------2-----4----x--------------|
E|-----------------------------------x-----x----x--------------|
                    Bm  A/C#  D
e|-------------------2-----x----2--------------|
B|-----7h8p7---------3-----2----3--------------|
G|---7-------9-7-----4-----2----2--------------|
D|-------------------4-----2----0--------------|
A|-------------------2-----4----x--------------|
E|-------------------x-----x----x--------------|

e|---------------10--12--14-15-14-10----------10-12-10-7/9----10----|
B|-----------10----10--10---------12-14\12--12---------------9------|
G|---7-9-9/11--11-------------------------12--------------10--------|
D|------------------------------------------------------------------|
A|------------------------------------------------------------------|
E|------------------------------------------------------------------|

Chorus:

       G            A               Bm
Ngunit'Di mo na mababawi, iniwang sakit
            D7             G
Sa mga salitang binitiwan mo
G             A                    Bm
Hindi ba't ikaw na rin, ang nagpasya, nagtakda
             Adim         Em         A             Bm
At s'yang unang umiwas, bakit nga ba ako'y yong pinaasa?

Outro:
               A  Bm7
e|----------7--5--5----------------|
B|-----7/8--8--5--3----------------|
G|-------------6--4----------------|
D|-------------7--4----------------|
A|-----5/7-------------------------|
E|---------------------------------|

            
            
Suggest correction
Creating personal tab
Creating personal tab
You can edit any tab online and save it as your Personal.

You can edit, replace or remove any tab part or add personal notes – all changes will be seen only by you.

Personal tabs can be accessed anytime from any device, even offline.
Learn more »
comments
print report bad tab
6 comments total. Showing first comments.
+3 reply
mrTorpedo 10 Jun 28, 2009 11:16 PM

so far...the most accurate of the 5 versions here...nice. i tried it, it's good! ^^ 5stars

+2 reply
jebus07 37 Aug 05, 2009 12:25 AM

The best ito. kesa sa 1st version..

+2 reply
zeether32 10 Aug 27, 2009 05:47 PM

PWEDE!!!!!

guest
You may want to rate the tab now too:
select rating
Wanna post a correction for this tab? Suggest correction