Oops, an error
Loading. Please wait.

Gkt tab

305 views 1 this week
1 commentread comment
1 2 3 4 5
2 more votes to show rating
add to favorites
×
Save as Personal and add changes to this tab that will be seen only by you. Learn more ›
×
You can save this tab as Personal to edit and correct it or add notes. All changes will be seen only by you. Learn more »
launch autoscroll
font size
0
reset
how to read this tab
guitar tuner
edit
Autoscroll
slow
fast
+/-
esc
set tempo
stop
Author
Tabbers playing skills
advanced +
Tuning eb bb gb db ab Eb

GtrI - Armo 09283150081 SHC125
GtrII- Yael

Intro-
1.
GtrI
|--------------------------------------|--------------------------------------|
|--------------------------------------|--------------------------------------|
|--------------------------------------|--------------------------------------|
|--------------------------------------|--------------------------------------|
|--------------------------------------|--------------------------------------|
|-5h7-7-7-7h9p7-5h7-5h7-5h7--7h9p7-5h7-|-5h7-7-7-7h9p7-5h7-5h7-5h7--7h9p7-5h7-|

|--------------------------------------|--------------------------------------|
|--------------------------------------|--------------------------------------|
|--------------------------------------|--------------------------------------|
|--------------------------------------|--------------------------------------|
|--------------------------------------|--------------------------------------|
|-5h7-7-7-7h9p7-5h7-5h7-5h7--7h9p7-5h7-|-5h7-7-7-7h9p7-5h7-5h7-5h7--7---------|

2.

GtrI 2x
|--------------------------------------|--------------------------------------|
|--------------------------------------|--------------------------------------|
|--------------------------------------|--------------------------------------|
|--------------------------------------|--------------------------------------|
|--------------------------------------|--------------------------------------|
|-5h7-7-7-7h9p7-5h7-5h7-5h7--7h9p7-5h7-|-5h7-7-7-7h9p7-5h7-5h7-5h7--7h9p7-5h7-|
GtrII
|-0-0-0-0-0-0-0-0-0-0-0-0-0-0-0-0-0-0-0-0-0-0-0-0-0-0-0-0-0-0-0-0-|
|-0-0-0-0-0-0-0-0-0-0-0-0-0-0-0-0-0-0-0-0-0-0-0-0-0-0-0-0-0-0-0-0-|
|-4-4-4-4-4-4-4-4-4-4-4-4-4-4-4-4-4-4-4-4-4-4-4-4-4-4-4-4-4-4-4-4-|
|-4-4-4-4-4-4-4-4-4-4-4-4-4-4-4-4-4-4-4-4-4-4-4-4-4-4-4-4-4-4-4-4-|
|-2-2-2-2-2-2-2-2-2-2-2-2-2-2-2-2-2-2-2-2-2-2-2-2-2-2-2-2-2-2-2-2-|
|-----------------------------------------------------------------|


Verse-
Both Gtrs
|---------------------------------------------------------|
|---------------------------------------------------------|
|---------------------------------------------------------|
|-7~-----11~------9~---------7~-----11~------9~-----------|
|-7~-----11~------9~---------7~-----11~------9~-----------|
|-5~------9~------7~---------5~------9~------7~-----------|

Figure palm muting...
|----------------------------------------------------------------|
|----------------------------------------------------------------|
|----------------------------------------------------------------|
|-----7---7-7-7-7-----7---7-7-7-----11--11111111----9---9-9-9-9--|
|-7-7-7-7-7-7-7-7-7-7-7-7-7-7-7-11111111111111119-9-9-9-9-9-9-9--|
|-5-5-5-5-5-5-5-5-5-5-5-5-5-5-5-9-9-9-9-9-9-9-9-7-7-7-7-7-7-7-7--|
                               
|----------------------------------------------------------------|
|----------------------------------------------------------------|
|----------------------------------------------------------------|
|-----7---7-7-7-7-----7---7-7-7-----11--11111111-9~--------------|
|-7-7-7-7-7-7-7-7-7-7-7-7-7-7-7-1111111111111111-9~--------------|
|-5-5-5-5-5-5-5-5-5-5-5-5-5-5-5-9-9-9-9-9-9-9-9--7~--------------|


Chorus1-
GtrI 
2x
|--------------------------------------|--------------------------------------|
|--------------------------------------|--------------------------------------|
|--------------------------------------|--------------------------------------|
|--------------------------------------|--------------------------------------|
|--------------------------------------|--------------------------------------|
|-5h7-7-7-7h9p7-5h7-5h7-5h7--7h9p7-5h7-|-5h7-7-7-7h9p7-5h7-5h7-5h7--7h9p7-5h7-|
GtrII
|-0-0-0-0-0-0-0-0-0-0-0-0-0-0-0-0-0-0-0-0-0-0-0-0-0-0-0-0-0-0-0-0-|
|-0-0-0-0-0-0-0-0-0-0-0-0-0-0-0-0-0-0-0-0-0-0-0-0-0-0-0-0-0-0-0-0-|
|-4-4-4-4-4-4-4-4-4-4-4-4-4-4-4-4-4-4-4-4-4-4-4-4-4-4-4-4-4-4-4-4-|
|-4-4-4-4-4-4-4-4-4-4-4-4-4-4-4-4-4-4-4-4-4-4-4-4-4-4-4-4-4-4-4-4-|
|-2-2-2-2-2-2-2-2-2-2-2-2-2-2-2-2-2-2-2-2-2-2-2-2-2-2-2-2-2-2-2-2-|
|-----------------------------------------------------------------|

Chorus2
Both Gtrs
|-----------------------------------------------------------------|
|-----------------------------------------------------------------|
|-4-4-4-4-4-4-4-4-6-6-6-6-6-6-6-6---------------------------------|
|-4-4-4-4-4-4-4-4-6-6-6-6-6-6-6-6-7-7-7-7-7-7-7-7-2-2-2-2-2-2-2-2-|
|-2-2-2-2-2-2-2-2-4-4-4-4-4-4-4-4-7-7-7-7-7-7-7-7-2-2-2-2-2-2-2-2-|
|---------------------------------5-5-5-5-5-5-5-5-0-0-0-0-0-0-0-0-|

|-----------------------------------------------------------------|
|-----------------------------------------------------------------|
|-----------------------------------------------------------------|
|-5-5-5-5-5-5-5-5-7-7-7-7-7-7-7-7-5-5-5-5-5-5-5-5-7-7-7-7-7-7-7-7-|
|-5-5-5-5-5-5-5-5-7-7-7-7-7-7-7-7-5-5-5-5-5-5-5-5-7-7-7-7-7-7-7-7-|
|-3-3-3-3-3-3-3-3-5-5-5-5-5-5-5-5-3-3-3-3-3-3-3-3-5-5-5-5-5-5-5-5-|


Solo-
GtrI
|---------------------------------------------------------------|
|----------------------------------------------------9-12-------|
|----------------------------------------------9-11-------------|
|------------------------------------------9-11-----------------|
|-/66~--666------6-7p6--9h11-9~--9h11p9-11----------------------|
|------------7h9------------------------------------------------|
        **       *


|--------14---------14------------------------------------------|
|-14^(16)---14^(16)-----14^(16)14-14p12-----14~-----------------|
|----------------------------------------13---------------------|
|---------------------------------------------------------------|
|---------------------------------------------------------------|
|---------------------------------------------------------------|

|-------------------------------------------------------------------|
|-14-14-14--14^(15)14---12------------------------------------------|
|--------------------------14-13------------------------------------|
|--------------------------------14---12^-----14~--14-14h16p14--14~-|
|-----------------------------------------14------------------16----|
|-------------------------------------------------------------------|

|--------------16-15-14-12~----------|
|---------14-------------------------|
|---14-16----------------------------|
|-14---------------------------------|
|------------------------------------|
|------------------------------------|

GtrII 
|------------------------------------------------------------------|
|------------------------------------------------------------------|
|-4-4-4-4-4-4-4-4-6-6-6-6-6-6-6-6----------------------------------|
|-4-4-4-4-4-4-4-4-6-6-6-6-6-6-6-6-7-7-7-7-7-7-7-7-2222222222222222-|
|-2-2-2-2-2-2-2-2-4-4-4-4-4-4-4-4-7-7-7-7-7-7-7-7-2222222222222222-|
|---------------------------------5-5-5-5-5-5-5-5-0000000000000000-|


Verse-Both Gtrs
|----------------------------------------------------------------|
|----------------------------------------------------------------|
|----------------------------------------------------------------|
|-7~----12-11-9-11-9-7-7-7-7-7-7-7-7-7-11-11-11-11-9-9-9-9-9-9---|
|-7~----12-11-9-11-9-7-7-7-7-7-7-7-7-7-11-11-11-11-9-9-9-9-9-9---|
|-5~----10-9--7-9--7-5-5-5-5-5-5-5-5-5-9--9--9--9--7-7-7-7-7-7---|

|----------------------------------------------------------------|
|----------------------------------------------------------------|
|----------------------------------------------------------------|
|-----7---7-7-7-7-----7---7-7-7-----11--11111111----9---9-9-9-9--|
|-7-7-7-7-7-7-7-7-7-7-7-7-7-7-7-11111111111111119-9-9-9-9-9-9-9--|
|-5-5-5-5-5-5-5-5-5-5-5-5-5-5-5-9-9-9-9-9-9-9-9-7-7-7-7-7-7-7-7--|
                               
|----------------------------------------------------------------|
|----------------------------------------------------------------|
|----------------------------------------------------------------|
|-----7---7-7-7-7-----7---7-7-7-----11--11111111-9---------------|
|-7-7-7-7-7-7-7-7-7-7-7-7-7-7-7-1111111111111111-9---------------|
|-5-5-5-5-5-5-5-5-5-5-5-5-5-5-5-9-9-9-9-9-9-9-9--7---------------|

Do Chorus 1 
Both Gtrs
|-----------------------------------------------------------------|
|-----------------------------------------------------------------|
|-4-4-4-4-4-4-4-4-6-6-6-6-6-6-6-6---------------------------------|
|-4-4-4-4-4-4-4-4-6-6-6-6-6-6-6-6-7-7-7-7-7-7-7-7-2-2-2-2-2-2-2-2-|
|-2-2-2-2-2-2-2-2-4-4-4-4-4-4-4-4-7-7-7-7-7-7-7-7-2-2-2-2-2-2-2-2-|
|---------------------------------5-5-5-5-5-5-5-5-0-0-0-0-0-0-0-0-|

|---------------------------------------------------------------------------|
|---------------------------------------------------------------------------|
|-4-4-4-4-4-4-4-4-6-6-6-6-6-6-6-6-------------------------------------------|
|-4-4-4-4-4-4-4-4-6-6-6-6-6-6-6-6-7-7-7-7-7-7-7-7-2-2-2-2-2-2-2-2-2-2-2-2-2-|
|-2-2-2-2-2-2-2-2-4-4-4-4-4-4-4-4-7-7-7-7-7-7-7-7-2-2-2-2-2-2-2-2-2-2-2-2-2-|
|---------------------------------5-5-5-5-5-5-5-5-0-0-0-0-0-0-0-0-0-0-0-0-0-|
Outro-
1.
GtrI
|-----------------------------------------------------|
|-------------------10~------------------10h12~-12~---|
|-----7~----11~--9~-------------------11--------------|
|-/5~----9~-------------12-11-9~----9-----------------|
|--------------------------------10-------------------|
|-----------------------------------------------------|

|----------9-10-12--14-15-14--12-10-12---19-20-19-17-15-17-19-17-|
|-10-12-14-------------------------------------------------------|
|----------------------------------------------------------------|
|----------------------------------------------------------------|
|----------------------------------------------------------------|
|----------------------------------------------------------------|

|-------14--16h17p14----------------14--16h17p14-----------------|
|----17--------------17~----------17--------------17~------------|
|-16---------------------------16--------------------------------|
|----------------------------------------------------------------|2x
|----------------------------------------------------------------|
|----------------------------------------------------------------|

GtrII
|-----------------------------------------------------------------|
|-----------------------------------------------------------------|
|-----------------------------------------------------------------|
|-5-5-5-5-5-5-5-5-7-7-7-7-7-7-7-7-5-5-5-5-5-5-5-5-7-7-7-7-7-7-7-7-|
|-5-5-5-5-5-5-5-5-7-7-7-7-7-7-7-7-5-5-5-5-5-5-5-5-7-7-7-7-7-7-7-7-|
|-3-3-3-3-3-3-3-3-5-5-5-5-5-5-5-5-3-3-3-3-3-3-3-3-5-5-5-5-5-5-5-5-|

|----------------------------------|
|----------------------------------|
|-5-5-5-5-5-5-5-5-7-7-7-7-7-7-7-7--|
|-5-5-5-5-5-5-5-5-7-7-7-7-7-7-7-7--|
|-3-3-3-3-3-3-3-3-5-5-5-5-5-5-5-5--|
|----------------------------------|

|-----------------------------------------------------------------|
|-----------------------------------------------------------------|
|-----------------------------------------------------------------|
|-2-2-2-2-2-2-2-2-2-2-2-2-2-2-2-2-2-2-2-2-2-2-2-2-2-2-2-2-2-2-2-2-|
|-2-2-2-2-2-2-2-2-2-2-2-2-2-2-2-2-2-2-2-2-2-2-2-2-2-2-2-2-2-2-2-2-|end
|-0-0-0-0-0-0-0-0-0-0-0-0-0-0-0-0-0-0-0-0-0-0-0-0-0-0-0-0-0-0-0-0-|


            
            
Suggest correction
Creating personal tab
Creating personal tab
You can edit any tab online and save it as your Personal.

You can edit, replace or remove any tab part or add personal notes – all changes will be seen only by you.

Personal tabs can be accessed anytime from any device, even offline.
Learn more »
Give kudos to tab author, rate the tab!
1 2 3 4 5
comments
print report bad tab
1 comment total.
0 reply
guitarkoto 10 Dec 17, 2008 12:13 AM

galing ah .|../

guest
You may want to rate the tab now too:
select rating
Wanna post a correction for this tab? Suggest correction