Oops, an error
Loading. Please wait.

Movie bass

552 views 1 this week
no commentswrite comment
1 2 3 4 5
3 more votes to show rating
add to favorites
×
Save as Personal and add changes to this tab that will be seen only by you. Learn more ›
×
You can save this tab as Personal to edit and correct it or add notes. All changes will be seen only by you. Learn more »
launch autoscroll
font size
0
reset
guitar tuner
edit
Autoscroll
slow
fast
+/-
esc
set tempo
stop
Author
Difficulty
Title : Movie (BASS lines)
Artist : Spongecola

Tabbed by jonathan david (Angeles city science high school)

Tuning : standard
		E
          A
          D
          G


Verse 1


G|--------------------------------------------------------|
D|--------------------------------------------------------|
A|---(6)---------------------------------------------(5)--|
E|--------------------------------------------------------|

  The movie is done once more…  lets wait for them to leave

G|--------------------------------------------------------|
D|--------------------------------------------------------|
A|--------------(6)---------------------------------------|
E|------------------------------------------(4)-----------|

   I was…for crowds     I look down on the floor,

G|--------------8-7---------------------------------------|
D|------------------8~--------5-6--8----------------------|
A|-----------------------6-8------------------------------|
E|--------------------------------------------------------|

Everything’s undone      yet we’ve been so much

more, than a full length feature…

G|--------------------------------------------------------|
D|--------------------------------------------------------|
A|--66666666-55555555----------3-33—1-1-------------------|
E|-------------------44444444-----------------------------|


Refrain
G|--------------------------------------------------------|
D|--------------------------------------------------------|
A|--------------------6-6-6-6--5-5-5-5--------------------|
E|--3-3-3-3--4-4-4-4--------------------------------------|

   We long for escape…

G|--------------------------------------------------------|
D|---------------------------5-6-8------------------------|
A|--------------------6~--6-8-----------------------------|
E|--3-3-3-3--4-4-4-4--------------------------------------|

   I don’t know if it’s me…

Chorus


G|--------------------------------------------------------|
D|--------------------------------------------------------|
A|--66666666-55555555----------3-33—1-1-------------------|
E|-------------------44444444-----------------------------|

  Should I stay…

G|--------------------------------------------------------|
D|--------------------------------------------------------|
A|--66666666-55555555----------3-33—1-1-------------------|
E|-------------------44444444-----------------------------|

   And credits may soon roll away…


G|--------------------------------------------------------|
D|---6-8----------5/6~----6-8-----------------------------|
A|------6~--656---------------6~--6-8-5~--/1~-------------|
E|--------------------------------------------------------|

Verse 2

G|--------------------------------------------------------|
D|--------------------------------------------------------|
A|----6~~-----------------5~---6~-------------------------|
E|--------------------------------------------------------|
You have my jacket on
Comfort in my warmth
I'm used to the cold
I'm used to the cold


Refrain

G|--------------------------------------------------------|
D|--------------------------------------------------------|
A|--------------------6-6-6-6--5-5-5-5--------------------|
E|--3-3-3-3--4-4-4-4--------------------------------------|

   And I hope you’d agree
G|--------------------------------------------------------|
D|---------------------------5-6-8------------------------|
A|--------------------6~--6-8-----------------------------|
E|--3-3-3-3--4-4-4-4--------------------------------------|


Chorus ulet
Adlib
Outro (Chorus)

Forever shall I be the ill-fated type
Forever must I be the on you confide to
Forever must I be the pages you need
For you to write all the secrets that
You hope I would keep
Forever must I drive you home late at night
After watching these films that seem to imitate life
Forever must I be the opinion you seek
Forever will I be the friend that you would keep

END

Un lang mraming salamat, God bless…
Pki tgnan ang isa q pang bass tabs, harana (inuman sessions live) by PnE… LONG LIVE 
pti ACSCI band

            
            
Suggest correction
Creating personal tab
Creating personal tab
You can edit any tab online and save it as your Personal.

You can edit, replace or remove any tab part or add personal notes – all changes will be seen only by you.

Personal tabs can be accessed anytime from any device, even offline.
Learn more »
Give kudos to tab author, rate the tab!
1 2 3 4 5
comments
print report bad tab
guest
You may want to rate the tab now too:
select rating
Wanna post a correction for this tab? Suggest correction