Oops, an error
Loading. Please wait.

Pasubali tab

version 3
version 3

Whole song

32,252 views 42 this week
5 commentsread comments
1 2 3 4 5
x 18
add to favorites
×
Save as Personal and add changes to this tab that will be seen only by you. Learn more ›
×
You can save this tab as Personal to edit and correct it or add notes. All changes will be seen only by you. Learn more »
launch autoscroll
font size
0
reset
how to read this tab
guitar tuner
edit
Autoscroll
slow
fast
+/-
esc
set tempo
stop
Title       : Do you know this feeling
Artist      : Sponge cola

Ear tabber  : ROGEM S. BATTUNG
Address     : Palawan St. Sampaloc Manila
E-mail add 1: Guitarizta_rogem@yahoo.com
Contact no  : 09103887102

School      : EARIST B.S. APPLIED PHYSICS-1
Time Elapsed: 
Date        : Dec 17 2006

this song is part of their new Album named Transit if you want the complete 
tabs of the Album just type in the "song name" inputbar "Transit"

"""makikita nyo naman name ko dun ehh qng sino gumawa"""

|==========================================================================|
|============================READ FIRST====================================|
|==========================================================================|

ROGEM -> sa mga chord user na Gusto matuto na gumamit ng tab my instruction
         send kyo ng message sa Friendster " Guitarizta_rogem@yahoo.com or 
         Email nyo ako Guitarizta_gem@yahoo.com sabihin nyo kung kailangan 
         nyo ng Instruction sa pagbasa ng Tab forward ko sa inyo T.y.

ROGEM -> Gumawa ako ng dalwang tunning n2 ung naka E-Stadard & naka Eb   
         gumawa ako nun para sa hindi pa marunong mag tono ng Eb-tunning..
         pero mas reccomend ko pa din Eb kc dun talaga nila ginawa ung song
         
ROGEM -> Dedicate ko ulit 2 sa lahat ng Friends ko lahat ng BS APPLIED 
         PHYSICS mga BS. COMPUTER SCIENCE mga BS. MATH at mga BS.PSYCHOLOGY 
         lahat ng taga C.A.S. at lahat ng taga EARIST hehehe

ROGEM -> any suggestion and Comment txt 09103887102 send kyo ng Msj sa 
         Friendster Guitarizta_rogem@yahoo.com

|==================================================|
|==================================================|
|						   |
|                    PASUBALI-E                    |
|						   |
|==================================================|
|==================================================|

Transcribed by: ROGEM S. BATTUNG
School        : EARIST B.S. APPLIED PHYSICS 
Time Elapsed  : 8:40-9:20
Date          : Dec 17 2006
Contact no    : 09103887102

ROGEM - > d2 ginawa ko 2ng tab na to qng papano q 2 tugtugin
	  pero qng di kyo satisfy o di nyo nagustuhan kung
	  pano ko iplay ung song pwd nyo gamitin ung basic chords
	  nalang nakalagay naman ung mga chords

INTRO

e|---------------------------------------------------|
B|---------------------------------------------------|
G|----------/77777777-----------3---3-5-2---2-3------|
D|-88888888-/77777777-55555555\---5-------3----------|
A|-88888888-/55555555-55555555\----------------------|
E|-66666666-----------33333333\----------------------|

GTR I
e|-------------|------------|------------|--------------|
B|-------------|------------|------------|--------------|
G|-------------|--77777777--|------------|--------------|
D|---88888888--|--77777777--|--55555555--|--44444444----|
A|---88888888--|--55555555--|--55555555--|--44444444----|
E|---66666666--|------------|--33333333--|--22222222----|
GTR II
e|-------------|------------|------------|--------------|
B|-------------|------------|------------|--------------|
G|-------------|------------|------------|--------------|
D|-------------|------------|------------|--------------|
A|-/55-33-11-33|-55-33-11-33|-55-33-11-33|-55-33-11-33--|
E|-------------|------------|------------|--------------|

GTR I
e|-------------|------------|------------|--------------|
B|-------------|------------|------------|--------------|
G|-------------|--77777777--|------------|--------------|
D|---88888888--|--77777777--|--55555555--|--888-7777----|
A|---88888888--|--55555555--|--55555555--|--888-8888----|
E|---66666666--|------------|--33333333--|--666-5555----|
GTR II
e|-----------------------------------------------------------------------|
B|-----------------------------------------------------------------------|
G|-10-10-88-77-88--10-10-88-77-88--10-10-88-77-88-10-10-88-77-88-10-10---|
D|-----------------------------------------------------------------------|
A|-/8--8-66-55-66---8--8-66-55-66--8--8--88-55-66--8--8-66-55-66--8-8----|
E|-----------------------------------------------------------------------|


VERSE I
    Bb	         Dm           Eb           Bb9  Bb
e|-6-6-6-6-6-6--5-5-5-5-5-5--x-x-x-x-x-x--1-1--1-1--------------|
B|-6-6-6-6-6-6--6-6-6-6-6-6--8-8-8-8-8-8--1-1--3-3--------------|
G|-7-7-7-7-7-7--7-7-7-7-7-7--8-8-8-8-8-8--3-3--3-3--------------|
D|-8-8-8-8-8-8--7-7-7-7-7-7--8-8-8-8-8-8--3-3--3-3--------------|
A|-8-8-8-8-8-8--5-5-5-5-5-5--6-6-6-6-6-6--1-1--1-1--------------|
E|-6-6-6-6-6-6--------------------------------------------------|

Bb                                  Dm
Kung pwede lang  wag mo na 'tong iwasan
     Eb                      Bb9-Bb
At -wag mo ring ituring na biro
Bb                        Dm
marahil 'to'y 'di mo inaasahan
     Eb                      Bb9-Bb
pero sana'y 'wag ipinid ang pinto

REFRAIN
    Gm      F      Eb
e|----------------------------------------|
B|----------------------------------------|
G|-----------------8-8-8-8-8-8-8----------|
D|--5~5----3-3-3---8-8-8-8-8-8-8----------|
A|--5-5----3-3-3---6-6-6-6-6-6-6----------|
E|--3-3----1-1-1--------------------------|
Gm         F
Itikom ang bibig
Eb
Mata'y ibaling sa 'kin
    Gm      F      Eb

Gm               F        Eb
Pakinggan mo ang sasabihin ko

CHORUS
    Bb            Dm          Gm           F#
e|--------------------------------------------------------|
B|----------------------------------------2-2-2-2-2-2-----|
G|--------------7-7-7-7-7-7---------------3-3-3-3-3-3-----|
D|-8-8-8-8-8-8--7-7-7-7-7-7--5-5-5-5-5-5--4-4-4-4-4-4-----|
A|-8-8-8-8-8-8--5-5-5-5-5-5--5-5-5-5-5-5--4-4-4-4-4-4-----|
E|-6-6-6-6-6-6---------------3-3-3-3-3-3------------------|
Bb
Kailan mo ba matututunan?
Dm
kailan mo ba 'pagsisigawang
Gm                     F#
Di mo na 'pagkakailang tayo


    Bb            Dm          Gm          Bb    Cm    A
e|--------------------------------------------------------|
B|--------------------------------------------------------|
G|--------------7-7-7-7-7-7-------------------------------|
D|-8-8-8-8-8-8--7-7-7-7-7-7--5-5-5-5-5-5-8-8-/-10--\-7----|
A|-8-8-8-8-8-8--5-5-5-5-5-5--5-5-5-5-5-5-8-8-/-10--\-7----|
E|-6-6-6-6-6-6---------------3-3-3-3-3-3-6-6-/-8---\-5----|

Bb
Kay rami nang pinagdaanan
Dm
Ano pa bang 'yong kailangan?
Gm                      Bb Cm-A
Nagsusumamo na sabihin mo

INTERLUDE
GTR I
    Bb	         Dm           Eb           Bb9  Bb
e|-6-6-6-6-6-6--5-5-5-5-5-5--x-x-x-x-x-x--1-1--1-1--------------|
B|-6-6-6-6-6-6--6-6-6-6-6-6--8-8-8-8-8-8--1-1--3-3--------------|
G|-7-7-7-7-7-7--7-7-7-7-7-7--8-8-8-8-8-8--3-3--3-3--------------|
D|-8-8-8-8-8-8--7-7-7-7-7-7--8-8-8-8-8-8--3-3--3-3--------------|
A|-8-8-8-8-8-8--5-5-5-5-5-5--6-6-6-6-6-6--1-1--1-1--------------|
E|-6-6-6-6-6-6--------------------------------------------------|

GTR II
e|-1------------1------------1----------3-----------------|
B|----3------------3-------------3------------4---3--3----|
G|--------------------------------------------------------|
D|--------------------------------------------------------|
A|--------------------------------------------------------|
E|--------------------------------------------------------|

VERSE
GTR I
    Bb		    Dm              Eb            Bbm   Bb
e|-6-6-6-6-6-6-----5-5-5-5-5-5-----x-x-x-x-x-x----1-1--1-1|
B|-6-6-6-6-6-6-----6-6-6-6-6-6-----8-8-8-8-8-8----1-1--3-3|
G|-7-7-7-7-7-7-----7-7-7-7-7-7-----8-8-8-8-8-8----3-3--3-3|2x
D|-8-8-8-8-8-8-----7-7-7-7-7-7-----8-8-8-8-8-8----3-3--3-3|
A|-8-8-8-8-8-8-----5-5-5-5-5-5-----6-6-6-6-6-6----1-1--1-1|
E|-6-6-6-6-6-6--------------------------------------------|
GTR II
e|6-6-6-6-6-6-6-6-5-5-5-5-5-5-5-5-x-x-x-x-x-x-x-x---------|
B|6-6-6-6-6-6-6-6-6-6-6-6-6-6-6-6-4-4-4-4-4-4-4-4---4-3-3-|
G|7-7-7-7-7-7-7-7-7-7-7-7-7-7-7-7-3-3-3-3-3-3-3-3---------|
D|--------------------------------1-1-1-1-1-1-1-1---------|2x
A|--------------------------------------------------------|
E|--------------------------------------------------------|
Bb                     Dm
Ang diwa ko'y tigib sa kakaisip
  Ebb                       Bbm-Bb
Sa sarili'y laging may kinikimkim
Bb                     Dm
Patuloy lamang bang mananaginip
  Eb                       Bbm-Bb
At mananatili lang na nakapikit

REFRAIN
    Gm      F      Eb
e|----------------------------------------|
B|----------------------------------------|
G|-----------------8-8-8-8-8-8-8----------|
D|--5~5----3-3-3---8-8-8-8-8-8-8----------|
A|--5-5----3-3-3---6-6-6-6-6-6-6----------|
E|--3-3----1-1-1--------------------------|
Gm         F
Akoy mayrong batid
Eb
Itoy iyong pag amin

     Gm     F      Eb		    Eb
e|-----------------------------------------------------|
B|-----------------------------------------------------|
G|-----------------8-8-8-8-8-8-8---x-x-x-x-x-x-x-------|
D|--5~5----3-3-3---8-8-8-8-8-8-8---8-8-8-8-8-8-8-------|
A|--5-5----3-3-3---6-6-6-6-6-6-6---6-6-6-6-6-6-6-------|
E|--3-3----1-1-1---------------------------------------|
Gm              F        Eb
Hindi na natin maiiwasan to


CHORUS
    Bb            Dm          Gm           F#
e|--------------------------------------------------------|
B|----------------------------------------2-2-2-2-2-2-----|
G|--------------7-7-7-7-7-7---------------3-3-3-3-3-3-----|
D|-8-8-8-8-8-8--7-7-7-7-7-7--5-5-5-5-5-5--4-4-4-4-4-4-----|
A|-8-8-8-8-8-8--5-5-5-5-5-5--5-5-5-5-5-5--4-4-4-4-4-4-----|
E|-6-6-6-6-6-6---------------3-3-3-3-3-3------------------|
Bb
Kailan mo ba matututunan?
Dm
kailan mo ba 'pagsisigawang
Gm                     F#
Di mo na 'pagkakailang tayo


    Bb            Dm          Gm          Bb    Cm    A
e|--------------------------------------------------------|
B|--------------------------------------------------------|
G|--------------7-7-7-7-7-7-------------------------------|
D|-8-8-8-8-8-8--7-7-7-7-7-7--5-5-5-5-5-5-8-8-/-10--\-7----|
A|-8-8-8-8-8-8--5-5-5-5-5-5--5-5-5-5-5-5-8-8-/-10--\-7----|
E|-6-6-6-6-6-6---------------3-3-3-3-3-3-6-6-/-8---\-5----|

Bb
Kay rami nang pinagdaanan
Dm
Ano pa bang 'yong kailangan?
Gm                      Bb Cm-A
Nagsusumamo na sabihin mo

REFRAIN
    Gm      F      Eb
e|----------------------------------------|
B|----------------------------------------|
G|-----------------8-8-8-8-8-8-8----------|
D|--5~5----3-3-3---8-8-8-8-8-8-8----------|
A|--5-5----3-3-3---6-6-6-6-6-6-6----------|
E|--3-3----1-1-1--------------------------|
Gm         F
Akoy mayrong batid
Eb
Itoy iyong pag amin

     Gm     F      Eb
e|-----------------------------------------------------|
B|-----------------------------------------------------|
G|-----------------8-----------------------------------|
D|--5~5----3-3-3---8-----------------------------------|
A|--5-5----3-3-3---6-----------------------------------|
E|--3-3----1-1-1---------------------------------------|
Gm              F        Eb
Hindi na natin maiiwasan to

INTERLUDE


GTR II
   F       F#        Gm      F#
e|------------------------------------------------|
B|------------------------------------------------|
G|-------3--------4--------5--------4-4-----------| 3x
D|-----3--------4--------5--------4------4--------|
A|---3--------4--------5--------4-----------------|
E|-1--------2--------3--------2-------------------|


GTR I papasok 2 sa 3rd Round ng INterlude
e|------------------------------------------------------|
B|------------------------------------------------------|
G|------------------------------------------------------|
D|33333333--44444444-55555555-44444444-4-4-4-4-4-4-4-4--|
A|33333333--44444444-55555555-44444444-4-4-4-4-4-4-4-4--|
E|11111111--22222222-33333333-22222222-2-2-2-2-2-2-2-2--|

e|-------------------------------------------------------|
B|-------------------------------------------------------|
G|-------------------------------------------------------|
D|-------------------------------------------------------|
A|--1-/6\------------------------------------------------|
E|-------------------------------------------------------|
   naiintindihan mo Ba?....


CHORUS
    Bb            Dm          Gm           F#
e|--------------------------------------------------------|
B|----------------------------------------2-2-2-2-2-2-----|
G|--------------7-7-7-7-7-7---------------3-3-3-3-3-3-----|
D|-8-8-8-8-8-8--7-7-7-7-7-7--5-5-5-5-5-5--4-4-4-4-4-4-----|
A|-8-8-8-8-8-8--5-5-5-5-5-5--5-5-5-5-5-5--4-4-4-4-4-4-----|
E|-6-6-6-6-6-6---------------3-3-3-3-3-3------------------|
Bb
Kailan mo ba matututunan?
Dm
kailan mo ba 'pagsisigawang
Gm                     F#
Di mo na 'pagkakailang tayo


    Bb            Dm          Gm          Bb    Cm    A
e|--------------------------------------------------------|
B|--------------------------------------------------------|
G|--------------7-7-7-7-7-7-------------------------------|
D|-8-8-8-8-8-8--7-7-7-7-7-7--5-5-5-5-5-5-8-8-/-10--\-7----|
A|-8-8-8-8-8-8--5-5-5-5-5-5--5-5-5-5-5-5-8-8-/-10--\-7----|
E|-6-6-6-6-6-6---------------3-3-3-3-3-3-6-6-/-8---\-5----|

Bb
Kay rami nang pinagdaanan
Dm
Ano pa bang 'yong kailangan?
Gm                      Bb Cm-A
Nagsusumamo na sabihin mo

OUTRO
GTR I
e|-------------|------------|------------|--------------|
B|-------------|------------|------------|--------------|
G|-------------|--77777777--|------------|--------------|
D|---88888888--|--77777777--|--55555555--|--888-7777----|
A|---88888888--|--55555555--|--55555555--|--888-8888----|
E|---66666666--|------------|--33333333--|--666-5555----|
GTR II
e|-----------------------------------------------------------------------|
B|-----------------------------------------------------------------------|
G|-10-10-88-77-88--10-10-88-77-88--10-10-88-77-88-10-10-88-77-88-10-10---|
D|-----------------------------------------------------------------------|
A|-/8--8-66-55-66---8--8-66-55-66--8--8--88-55-66--8--8-66-55-66--8-8----|
E|-----------------------------------------------------------------------|

e|---------------------------------------------------|
B|---------------------------------------------------|
G|----------/77777777-----------3---3-5-2---2-3------|
D|-88888888-/77777777-55555555\---5-------3----------|
A|-88888888-/55555555-55555555\----------------------|
E|-66666666-----------33333333\----------------------|

ROGEM -> Dedicate ko ulit 2 sa lahat ng Friends ko lahat ng BS APPLIED 
         PHYSICS mga BS. COMPUTER SCIENCE mga BS. MATH at mga BS.PSYCHOLOGY 
         lahat ng taga C.A.S. at lahat ng taga EARIST hehehe

ROGEM -> any suggestion and Comment txt 09103887102 send kyo ng Msj sa 
         Friendster Guitarizta_rogem@yahoo.com

|==========================================================================|
|==========================================================================|
|==========================================================================|

this song is part of their new Album named Transit if you want the complete 
tabs of the Album just type in the "song name" inputbar "Transit"

"""makikita nyo naman name ko dun ehh qng sino gumawa"""


|==========================================================================|
|==========================================================================|
|==========================================================================|

|==================================================|
|==================================================|
|						   |
|                    PASUBALI                      |
|						   |
|==================================================|
|==================================================|

ROGEM - > d2 ginawa ko 2ng tab na to qng papano q 2 tugtugin
	  pero qng di kyo satisfy o di nyo nagustuhan kung
	  pano ko iplay ung song pwd nyo gamitin ung basic chords
	  nalang nakalagay naman ung mga chords

Transcribed by: ROGEM S. BATTUNG
School        : EARIST B.S. APPLIED PHYSICS 
Time Elapsed  : 8:40-9:20
Date          : Dec 17 2006
Contact no    : 09103887102

INTRO

eb|---------------------------------------------------|
Bb|---------------------------------------------------|
Gb|-44444444-/88888888-----------4---4-6-3---3-4------|
Db|-44444444-/88888888-66666666\---6-------4----------|
Ab|-22222222-/66666666-66666666\----------------------|
Eb|--------------------44444444\----------------------|

GTR I
eb|-------------|------------|------------|--------------|
Bb|-------------|------------|------------|--------------|
Gb|---44444444--|--88888888--|------------|--------------|
Db|---44444444--|--88888888--|--66666666--|--55555555----|
Ab|---22222222--|--66666666--|--66666666--|--55555555----|
Eb|-------------|------------|--44444444--|--33333333----|
GTR II
eb|-------------|------------|------------|--------------|
Bb|-------------|------------|------------|--------------|
Gb|-------------|------------|------------|--------------|
Db|-------------|------------|------------|--------------|
Ab|-/66-44-22-44|-66-44-22-44|-66-44-22-44|-66-44-22-44--|
Eb|-------------|------------|------------|--------------|


GTR I
eb|-------------|------------|------------|--------------|
Bb|-------------|------------|------------|--------------|
Gb|---44444444--|--88888888--|------------|-444-444444---|
Db|---44444444--|--88888888--|--66666666--|-444-333333---|
Ab|---22222222--|--66666666--|--66666666--|-222-111111---|
Eb|-------------|------------|--44444444--|--------------|
Guitar 2:
eb|-----------------------------------------------------------------------|
Bb|-----------------------------------------------------------------------|
Gb|-11-11-99-88-99--11-11-99-88-99--11-11-99-88-99-11-11-99-88-99-11-11---|
Db|-----------------------------------------------------------------------|
Ab|-/9--9-77-66-77---9--9-77-66-77--9--9--77-66-77--9--9-77-66-77--9-9----|
Eb|-----------------------------------------------------------------------|


VERSE

eb|-7-7-7-7-7-7--6-6-6-6-6-6--0-0-0-0-0-0--2-2--2-2--------------|
Bb|-7-7-7-7-7-7--7-7-7-7-7-7--0-0-0-0-0-0--2-2--4-4--------------|
Gb|-8-8-8-8-8-8--8-8-8-8-8-8--1-1-1-1-1-1--4-4--4-4--------------|
Db|-9-9-9-9-9-9--8-8-8-8-8-8--2-2-2-2-2-2--4-4--4-4--------------|
Ab|-9-9-9-9-9-9--6-6-6-6-6-6--2-2-2-2-2-2--2-2--2-2--------------|
Eb|-7-7-7-7-7-7---------------0-0-0-0-0-0------------------------|

B                                  Ebm
Kung pwede lang  wag mo na 'tong iwasan
     E                      B9-B
At -wag mo ring ituring na biro
B                        Ebm
marahil 'to'y 'di mo inaasahan
     E                      B9-B
pero sana'y 'wag ipinid ang pinto

REFRAIN
    G#m     F#      E
eb|----------------------------------------|
Bb|----------------------------------------|
Gb|----------------------------------------|
Db|--6~6----4-4-4---2-2-2-2-2-2-2----------|
Ab|--6-6----4-4-4---2-2-2-2-2-2-2----------|
Eb|--4-4----2-2-2---0-0-0-0-0-0-0----------|
G#m         F#
Itikom ang bibig
E
Mata'y ibaling sa 'kin

    G#m     F#      E              E
eb|-----------------------------------------------|
Bb|-----------------------------------------------|
Gb|--------------------------------x-x-x-x-x-x-x--|
Db|--6~6----4-4-4---2-2-2-2-2-2-2--9-9-9-9-9-9-9--|
Ab|--6-6----4-4-4---2-2-2-2-2-2-2--7-7-7-7-7-7-7--|
Eb|--4-4----2-2-2---0-0-0-0-0-0-0-----------------|
G#m               F#        E
Pakinggan mo ang sasabihin ko

CHORUS
    B            Ebm          G#m          G
eb|--------------------------------------------------------|
Bb|----------------------------------------3-3-3-3-3-3-----|
Gb|--------------8-8-8-8-8-8---------------4-4-4-4-4-4-----|
Db|-9-9-9-9-9-9--8-8-8-8-8-8--6-6-6-6-6-6--5-5-5-5-5-5-----|
Ab|-9-9-9-9-9-9--6-6-6-6-6-6--6-6-6-6-6-6--5-5-5-5-5-5-----|
Eb|-7-7-7-7-7-7---------------4-4-4-4-4-4------------------|
B
Kailan mo ba matututunan?
Ebm
kailan mo ba 'pagsisigawang
G#m                     G
Di mo na 'pagkakailang tayo

    B            Ebm          G#m         B     C#m   Bb
eb|--------------------------------------------------------|
Bb|--------------------------------------------------------|
Gb|--------------8-8-8-8-8-8--------------4-4-/-6----\-3-3-|
Db|-9-9-9-9-9-9--8-8-8-8-8-8--6-6-6-6-6-6-4-4-/-6----\-3-3-|
Ab|-9-9-9-9-9-9--6-6-6-6-6-6--6-6-6-6-6-6-2-2-/-4----\-1-1-|
Eb|-7-7-7-7-7-7---------------4-4-4-4-4-4------------------|
B
Kay rami nang pinagdaanan
Eb
Ano pa bang 'yong kailangan?
G#m                      B C#m-Bb
Nagsusumamo na sabihin mo

INTERLUDE
GTR I

eb|-7-7-7-7-7-7--6-6-6-6-6-6--0-0-0-0-0-0--2-2--2-2--------|
Bb|-7-7-7-7-7-7--7-7-7-7-7-7--0-0-0-0-0-0--2-2--4-4--------|
Gb|-8-8-8-8-8-8--8-8-8-8-8-8--1-1-1-1-1-1--4-4--4-4--------|
Db|-9-9-9-9-9-9--8-8-8-8-8-8--2-2-2-2-2-2--4-4--4-4--------|
Ab|-9-9-9-9-9-9--6-6-6-6-6-6--2-2-2-2-2-2--2-2--2-2--------|
Eb|-7-7-7-7-7-7---------------0-0-0-0-0-0------------------|

GTR II
eb|-2------------2------------2----------4-----------------|
Bb|----4------------4-------------4------------5---4--4----|
Gb|--------------------------------------------------------|
Db|--------------------------------------------------------|
Ab|--------------------------------------------------------|
Eb|--------------------------------------------------------|

VERSE
GTR I
    B		    Ebm             E              Bm   B
eb|-7-7-7-7-7-7-----6-6-6-6-6-6-----0-0-0-0-0-0----2-2--2-2|
Bb|-7-7-7-7-7-7-----7-7-7-7-7-7-----0-0-0-0-0-0----2-2--4-4|
Gb|-8-8-8-8-8-8-----8-8-8-8-8-8-----1-1-1-1-1-1----4-4--4-4|2x
Db|-9-9-9-9-9-9-----8-8-8-8-8-8-----2-2-2-2-2-2----4-4--4-4|
Ab|-9-9-9-9-9-9-----6-6-6-6-6-6-----2-2-2-2-2-2----2-2--2-2|
Eb|-7-7-7-7-7-7---------------------0-0-0-0-0-0------------|
GTR II
eb|7-7-7-7-7-7-7-7-6-6-6-6-6-6-6-6-x-x-x-x-x-x-x-x---------|
Bb|7-7-7-7-7-7-7-7-7-7-7-7-7-7-7-7-5-5-5-5-5-5-5-5---5-4-4-|
Gb|8-8-8-8-8-8-8-8-8-8-8-8-8-8-8-8-4-4-4-4-4-4-4-4---------|
Db|--------------------------------2-2-2-2-2-2-2-2---------|2x
Ab|--------------------------------------------------------|
Eb|--------------------------------------------------------|
B                     Ebm
Ang diwa ko'y tigib sa kakaisip
  E                       Bm-B
Sa sarili'y laging may kinikimkim
B                     Ebm
Patuloy lamang bang mananaginip
  E                       Bm-B
At mananatili lang na nakapikit

REFRAIN
    G#m     F#      E
eb|----------------------------------------|
Bb|----------------------------------------|
Gb|----------------------------------------|
Db|--6~6----4-4-4---2-2-2-2-2-2-2----------|
Ab|--6-6----4-4-4---2-2-2-2-2-2-2----------|
Eb|--4-4----2-2-2---0-0-0-0-0-0-0----------|
G#m         F#
Akoy mayrong batid
E
Itoy iyong pag amin

    G#m     F#      E              E
eb|-----------------------------------------------|
Bb|-----------------------------------------------|
Gb|--------------------------------x-x-x-x-x-x-x--|
Db|--6~6----4-4-4---2-2-2-2-2-2-2--9-9-9-9-9-9-9--|
Ab|--6-6----4-4-4---2-2-2-2-2-2-2--7-7-7-7-7-7-7--|
Eb|--4-4----2-2-2---0-0-0-0-0-0-0-----------------|
G#m              F#        E
Hindi na natin maiiwasan to


CHORUS
    B            Ebm          G#m          G
eb|--------------------------------------------------------|
Bb|----------------------------------------3-3-3-3-3-3-----|
Gb|--------------8-8-8-8-8-8---------------4-4-4-4-4-4-----|
Db|-9-9-9-9-9-9--8-8-8-8-8-8--6-6-6-6-6-6--5-5-5-5-5-5-----|
Ab|-9-9-9-9-9-9--6-6-6-6-6-6--6-6-6-6-6-6--5-5-5-5-5-5-----|
Eb|-7-7-7-7-7-7---------------4-4-4-4-4-4------------------|
B
Kailan mo ba matututunan
Eb
kailan mo ba 'pagsisigawang
G#m                     G
Di mo na 'pagkakailang tayo


    B            Ebm          G#m         B     C#m   Bb
eb|--------------------------------------------------------|
Bb|--------------------------------------------------------|
Gb|--------------8-8-8-8-8-8--------------4-4-/-6----\-3-3-|
Db|-9-9-9-9-9-9--8-8-8-8-8-8--6-6-6-6-6-6-4-4-/-6----\-3-3-|
Ab|-9-9-9-9-9-9--6-6-6-6-6-6--6-6-6-6-6-6-2-2-/-4----\-1-1-|
Eb|-7-7-7-7-7-7---------------4-4-4-4-4-4------------------|
B
Kay rami nang pinagdaanan
Eb
Ano pa bang 'yong kailangan?
G#m                      B C#m-Bb
Nagsusumamo na sabihin mo

REFRAIN
    G#m     F#      E
eb|----------------------------------------|
Bb|----------------------------------------|
Gb|----------------------------------------|
Db|--6~6----4-4-4---2-2-2-2-2-2-2----------|
Ab|--6-6----4-4-4---2-2-2-2-2-2-2----------|
Eb|--4-4----2-2-2---0-0-0-0-0-0-0----------|
G#m         F#
Akoy mayrong batid
E
Itoy iyong pag amin

    G#m     F#      E              E
eb|-----------------------------------------------|
Bb|-----------------------------------------------|
Gb|--------------------------------x-x-x-x-x-x-x--|
Db|--6~6----4-4-4---2-2-2-2-2-2-2--9-9-9-9-9-9-9--|
Ab|--6-6----4-4-4---2-2-2-2-2-2-2--7-7-7-7-7-7-7--|
Eb|--4-4----2-2-2---0-0-0-0-0-0-0-----------------|
G#m              F#        E
Hindi na natin maiiwasan to

Interlude
GTR II
   F#       G        G#m      G
eb|------------------------------------------------|
Bb|--------0--------0--------0--------0-0----------|
Gb|------------------------------------------------| 3x
Db|-----4--------5--------6--------5------5--------|
Ab|---4--------5--------6--------5-----------------|
Eb|-2--------3--------4--------3-------------------|

GTR I papasok 2 sa 3rd Round ng INterlude
eb|------------------------------------------------------|
Bb|------------------------------------------------------|
Gb|------------------------------------------------------|
Db|44444444--55555555-66666666-55555555-5-5-5-5-5-5-5-5--|
Ab|44444444--55555555-66666666-55555555-5-5-5-5-5-5-5-5--|
Eb|22222222--33333333-44444444-33333333-3-3-3-3-3-3-3-3--|

eb|-------------------------------------------------------|
Bb|-------------------------------------------------------|
Gb|-------------------------------------------------------|
Db|-------------------------------------------------------|
Ab|--2-/7\------------------------------------------------|
Eb|-------------------------------------------------------|
   naiintindihan mo Ba?....


CHORUS
    B            Ebm          G#m          G
eb|--------------------------------------------------------|
Bb|----------------------------------------3-3-3-3-3-3-----|
Gb|--------------8-8-8-8-8-8---------------4-4-4-4-4-4-----|
Db|-9-9-9-9-9-9--8-8-8-8-8-8--6-6-6-6-6-6--5-5-5-5-5-5-----|
Ab|-9-9-9-9-9-9--6-6-6-6-6-6--6-6-6-6-6-6--5-5-5-5-5-5-----|
Eb|-7-7-7-7-7-7---------------4-4-4-4-4-4------------------|
B
Kailan mo ba matututunan?
Eb
kailan mo ba 'pagsisigawang
G#m                     G
Di mo na 'pagkakailang tayo?

    B            Ebm          G#m         B     C#m   Bb
eb|--------------------------------------------------------|
Bb|--------------------------------------------------------|
Gb|--------------8-8-8-8-8-8--------------4-4-/-6----\-3-3-|
Db|-9-9-9-9-9-9--8-8-8-8-8-8--6-6-6-6-6-6-4-4-/-6----\-3-3-|
Ab|-9-9-9-9-9-9--6-6-6-6-6-6--6-6-6-6-6-6-2-2-/-4----\-1-1-|
Eb|-7-7-7-7-7-7---------------4-4-4-4-4-4------------------|
B
Kay rami nang pinagdaanan
Eb
Ano pa bang 'yong kailangan?
G#m                      B C#m-Bb
Nagsusumamo na sabihin mo

OUTRO
GTR I
eb|-------------|------------|------------|--------------|
Bb|-------------|------------|------------|--------------|
Gb|---44444444--|--88888888--|------------|-444-444444---|
Db|---44444444--|--88888888--|--66666666--|-444-333333---|
Ab|---22222222--|--66666666--|--66666666--|-222-111111---|
Eb|-------------|------------|--44444444--|--------------|
GTR II
eb|-----------------------------------------------------------------------|
Bb|-----------------------------------------------------------------------|
Gb|-11-11-99-88-99--11-11-99-88-99--11-11-99-88-99-11-11-99-88-99-11-11---|
Db|-----------------------------------------------------------------------|
Ab|-/9--9-77-66-77---9--9-77-66-77--9--9--77-66-77--9--9-77-66-77--9-9----|
Eb|-----------------------------------------------------------------------|

eb|---------------------------------------------------|
Bb|---------------------------------------------------|
Gb|-44444444-/88888888-----------4---4-6-3---3-4------|
Db|-44444444-/88888888-66666666\---6-------4----------|
Ab|-22222222-/66666666-66666666\----------------------|
Eb|--------------------44444444\----------------------|

ROGEM -> Dedicate ko ulit 2 sa lahat ng Friends ko lahat ng BS APPLIED 
         PHYSICS mga BS. COMPUTER SCIENCE mga BS. MATH at mga BS.PSYCHOLOGY 
         lahat ng taga C.A.S. at lahat ng taga EARIST hehehe

ROGEM -> any suggestion and Comment txt 09103887102 send kyo ng Msj sa 
         Friendster Guitarizta_rogem@yahoo.com


|==========================================================================|
|==========================================================================|
|==========================================================================|

this song is part of their new Album named Transit if you want the complete 
tabs of the Album just type in the "song name" inputbar "Transit"

"""makikita nyo naman name ko dun ehh qng sino gumawa"""

            
            
Suggest correction
Creating personal tab
Creating personal tab
You can edit any tab online and save it as your Personal.

You can edit, replace or remove any tab part or add personal notes – all changes will be seen only by you.

Personal tabs can be accessed anytime from any device, even offline.
Learn more »
comments
print report bad tab
5 comments total. Showing first comments.
0 reply
djsque 10 Aug 22, 2007 08:34 PM

kua pede po upload kau ng power tab nian o kaya ay guitar pro?...ganda
kc nian kanta...pls...tnx gudluck

0 reply
iverken 104 Apr 11, 2008 03:37 AM

idol talga ROGEM!! aheheheh...

0 reply
gitarista16 66 Apr 11, 2008 06:26 AM

tol dpat bass ung bndang part ng intro dba.. pero ok n din :) submit din aq ng version q with bass

guest
You may want to rate the tab now too:
select rating
Wanna post a correction for this tab? Suggest correction