Oops, an error
Loading. Please wait.

Wala Kang Katulad tab

11,692 views 6 this week
no commentswrite comment
1 2 3 4 5
1 last vote to show rating
add to favorites
×
Save as Personal and add changes to this tab that will be seen only by you. Learn more ›
×
You can save this tab as Personal to edit and correct it or add notes. All changes will be seen only by you. Learn more »
launch autoscroll
font size
0
reset
how to read this tab
guitar tuner
edit
Autoscroll
slow
fast
+/-
esc
set tempo
stop
Hi to all..Quezonians,lucenahins.Cordians.nurses...lol

Tuning - ( eb bb gb db ab Eb )

GtrI - Armo 09283150081
GtrII- Yael ***********

Intro-

|-----------------3-3-3-3-3-3-3-3----------------------------------------|
|-----------------3-3-3-3-3-3-3-3------------------8-8-8-8-8-8-8-8-------|
|-----------------0-0-0-0-0-0-0-0---8-8-8-8-8-8-8--9-9-9-9-9-9-9-9-------|
|-----------------0-0-0-0-0-0-0-0----------------------------------------|
|-3/5-3-3-2h3p2---2-2-2-2-2-2-2-2--/6-6-6-6-6-6-6--7-7-7-7-7-7-7-7-------|
|---------------3-3-3-3-3-3-3-3-3----------------------------------------|


|--------------------------------3~--------------------------------------|
|--------------------------------3~--------------------------------------|
|--------------------------------0~--------------------------------------|
|------------5-------------------0~--------------------------------------|
|--/6-5-3-2----3--2h3------------2~--------------------------------------|
|---------------------3~---------3~--------------------------------------|


Verse-
  G                Eb               G                Eb   
|------------------------------------------------------------------------|
|------------------------------------------------------------------------|
|------------------------------------------------------------------------|
|-5-5-5-5-5-5-5-5--8-8-8-8-8-8-8-8-5-5-5-5-5-5-5-5--8-8-8-8-8-8-8-8------|
|-5-5-5-5-5-5-5-5--6-6-6-6-6-6-6-6-5-5-5-5-5-5-5-5--6-6-6-6-6-6-6-6------|
|-3-3-3-3-3-3-3-3------------------3-3-3-3-3-3-3-3-----------------------|
  E               C#              C
|------------------------------------------------------------------------|
|------------------------------------------------------------------------|
|------------------------------------------------------------------------|
|-9-9-9-9-9-9-9-9-6-6-6-6-6-6-6-6-5-5-5-5-5-5-5-5-5-5-5-5-5-5-5-5--------|
|-7-7-7-7-7-7-7-7-4-4-4-4-4-4-4-4-3-3-3-3-3-3-3-3-3-3-3-3-3-3-3-3--------|
|------------------------------------------------------------------------|

Do verse

Chorus-
  G                Eb               Em                Eb  
|------------------------------------------------------------------------|
|------------------------------------------------------------------------|
|------------------------------------------------------------------------|
|-5-5-5-5-5-5-5-5--8-8-8-8-8-8-8-8--9-9-9-9-9-9-9-9--8-8-8-8-8-8-8-8-----|
|-5-5-5-5-5-5-5-5--6-6-6-6-6-6-6-6--7-7-7-7-7-7-7-7--6-6-6-6-6-6-6-6-----|
|-3-3-3-3-3-3-3-3--------------------------------------------------------|
  D                C#               C
|------------------------------------------------------------------------|
|------------------------------------------------------------------------|
|------------------------------------------------------------------------|
|-7-7-7-7-7-7-7-7--6-6-6-6-6-6-6-6--5-5-5-5-5-5-5-5-5-5-5-5-5-5-5-5------|
|-5-5-5-5-5-5-5-5--4-4-4-4-4-4-4-4--3-3-3-3-3-3-3-3-3-3-3-3-3-3-3-3------|
|------------------------------------------------------------------------|

Do Verse and Chorus

Bridge
  G#              F                G#              Bb  
|------------------------------------------------------12^(13)s----------|
|------------------------------------------------------------------------|
|------------------------------------------------------------------------|
|-6-6-6-6-6-6-6-6-3-3-3-3-3-3-3-3-6-6-6-6-6-6-6-6--8~--------------------|
|-6-6-6-6-6-6-6-6-3-3-3-3-3-3-3-3-6-6-6-6-6-6-6-6--8~--------------------|
|-4-4-4-4-4-4-4-4-1-1-1-1-1-1-1-1-4-4-4-4-4-4-4-4--6~--------------------|


  Dm              Bb              Dm
|----------------------------------------------------|
|----------------------------------------------------|
|-7-7-7-7-7-7-7-7-3-3-3-3-3-3-3-3-7-7-7-7-7-7-7-7----|
|-7-7-7-7-7-7-7-7-3-3-3-3-3-3-3-3-7-7-7-7-7-7-7-7----|
|-5-5-5-5-5-5-5-5-1-1-1-1-1-1-1-1-5-5-5-5-5-5-5-5----|
|----------------------------------------------------|

Bridge-
  Eb               C              Bb            F
|-------------------------------------------------------------|
|-------------------------------------------------------------|
|-8-8-8-8-8-8-8-8-5-5-5-5-5-5-5-5-3-3-3-3-3-3-----------------|
|-8-8-8-8-8-8-8-8-5-5-5-5-5-5-5-5-3-3-3-3-3-3-3-3-3-3-3-3-3---|
|-6-6-6-6-6-6-6-6-3-3-3-3-3-3-3-3-1-1-1-1-1-1-3-3-3-3-3-3-3---|
|---------------------------------------------1-1-1-1-1-1-1---|
  Eb               F#
|-------------------------------------|
|-------------------------------------|
|-8-8-8-8-8-8-8-8--1111111111111111~--|
|-8-8-8-8-8-8-8-8---------------------|
|-6-6-6-6-6-6-6-6--9-9-9-9-9-9-9-9~---|
|-------------------------------------|


Solo-
1.
GtrI
|------------------13~---------------------------------------------------|
|-10h11-13~--10h11-----10h11--13-----------------------------------------|
|------------------------------------------------------------------------|
|------------------------------------------------------------------------|
|------------------------------------------------------------------------|
|------------------------------------------------------------------------|
GtrII
 F#
|------------------------------------------------------------------------|
|------------------------------------------------------------------------|
|------------------------------------5/7\5-5~----------------------------|
|------------------------------------------------------------------------|
|------------------------------------3/5\3-3~----------------------------|
|------------------------------------------------------------------------|

2.
GtrI
|-------------------------------------------------------------|
|-10^(12)10---------------10-8---13^(15)13-12^(13)12----------|
|-----------7~-----7-8-10-----------------------------7^(8)7--|
|-------------------------------------------------------------|
|-------------------------------------------------------------|
|-------------------------------------------------------------|

|-------------------------------------------------------------|
|----------10-8---13^(15)13---/12----15^(17)-^(17)-15-12------|
|-/7-8-10-----------------------------------------------------|
|-------------------------------------------------------------|
|-------------------------------------------------------------|
|-------------------------------------------------------------|

|--14^(15)14--12-12~------14^(15)14--12--17~--15-15~----------|
|--------------------12---------------------------------------|
|-------------------------------------------------------------|
|-------------------------------------------------------------|
|-------------------------------------------------------------|
|-------------------------------------------------------------|

|--15-17^(18)17-15--17-17^(18)17-17--18--15~------------------|
|-------------------------------------------------------------|
|-------------------------------------------------------------|
|-------------------------------------------------------------|
|-------------------------------------------------------------|
|-------------------------------------------------------------|

GtrII

|-------------------------------------------------------------|
|-------------------------------------------------------------|
|-------------------------------------------------------------|
|-7^(9)7------------------7-5----10^(12)10-9^(10)9------------|
|-----------5~-----5-6-8------------------------------5^(6)5--|
|-------------------------------------------------------------|

|-------------------------------------------------------------|
|-------------------------------------------------------------|
|-------------------------------------------------------------|
|----------7--5---10^(12)10---/9-----12^(14)-^(14)-12-9-------|
|-/5-6-8------------------------------------------------------|
|-------------------------------------------------------------|

|-------------------------------------------------------------|
|-------------------------------------------------------------|
|--11^(12)11--9---9~------11^(12)11--9---14~--12-12~----------|
|--------------------9----------------------------------------|
|-------------------------------------------------------------|
|-------------------------------------------------------------|

|-------------------------------------------------------------|
|-------------------------------------------------------------|
|--12-14^(15)14-12--14-14^(15)14-14--15--12~------------------|
|-------------------------------------------------------------|
|-------------------------------------------------------------|
|-------------------------------------------------------------|



Coda-
GtrI
  G            Eb        Em                Eb
|-------------------------------------------------|
|-------------------------------------------------|
|-------------------------------------------------|
|-5~----------------------------------------------|
|-5~---------5-6~-6-----2-s7~-------7-9-10-6~-----|
|-3~-----3-5--------------------------------------|
                 D          C#
|-------------------------------------------------|
|-------------------------------------------------|
|-------------------------------------------------|
|-------------------------------------------------|
|--6-5-3-6/5-----5-4~---4~------------------------|
|------------3------------------------------------|


GtrI
  C
|--------------------------------------------|
|------------------------------12-12-13-13---|
|--55-77-99-11-11-12-12-14-14----------------|
|--------------------------------------------|
|--------------------------------------------|
|--------------------------------------------|

GtrII
   C
|------------------------------------|
|------------------------------------|
|--5-5-5-5-5-5-5-5-5-5-5-5-5-5-5-5---|
|--5-5-5-5-5-5-5-5-5-5-5-5-5-5-5-5---|
|--3-3-3-3-3-3-3-3-3-3-3-3-3-3-3-3---|
|------------------------------------|


Outro
GtrI
|-121212-------------------------------------------------|
|---------1515151515-1212121212121212-1717171717171717---|
|--------------------------------------------------------|
|--------------------------------------------------------|
|--------------------------------------------------------|
|--------------------------------------------------------|


|-1515151515151515---------------------------------------|
|------------------171717-1515151515-1414141414141414----|
|--------------------------------------------------------|
|--------------------------------------------------------|
|--------------------------------------------------------|
|--------------------------------------------------------|

|--------------------------------------------------------|
|-13-13—12-12-10-10-8-8-7-7-5-5------5-8~----------------|
|-------------------------------7-7----------------------|
|--------------------------------------------------------|
|--------------------------------------------------------|
|--------------------------------------------------------|

GtrII

|------------------------------------------------------------------------|
|------------------------------------------------------------------------|
|------------------------------------------------------------------------|
|-5-5-5-5-5-5-5-5--8-8-8-8-8-8-8-8--9-9-9-9-9-9-9-9--8-8-8-8-8-8-8-8-----|
|-5-5-5-5-5-5-5-5--6-6-6-6-6-6-6-6--7-7-7-7-7-7-7-7--6-6-6-6-6-6-6-6-----|
|-3-3-3-3-3-3-3-3--------------------------------------------------------|

|------------------------------------------------------------------------|
|------------------------------------------------------------------------|
|------------------------------------------------------------------------|
|-7-7-7-7-7-7-7-7--6-6-6-6-6-6-6-6--5-5-5-5-5-5-5-5-5-5-5-5-5-5-5-5------|
|-5-5-5-5-5-5-5-5--4-4-4-4-4-4-4-4--3-3-3-3-3-3-3-3-3-3-3-3-3-3-3-3------|
|------------------------------------------------------------------------|

            
            
Suggest correction
Creating personal tab
Creating personal tab
You can edit any tab online and save it as your Personal.

You can edit, replace or remove any tab part or add personal notes – all changes will be seen only by you.

Personal tabs can be accessed anytime from any device, even offline.
Learn more »
Give kudos to tab author, rate the tab!
1 2 3 4 5
comments
print report bad tab
guest
You may want to rate the tab now too:
select rating
Wanna post a correction for this tab? Suggest correction