Oops, an error
Loading. Please wait.

Got Nuffin tab

by Spoon
10,308 views 15 this week
no commentswrite comment
1 2 3 4 5
x 5
add to favorites
×
Save as Personal and add changes to this tab that will be seen only by you. Learn more ›
×
You can save this tab as Personal to edit and correct it or add notes. All changes will be seen only by you. Learn more »
launch autoscroll
font size
0
reset
how to read this tab
guitar tuner
edit
Autoscroll
slow
fast
+/-
esc
set tempo
stop
Author
Difficulty
intermediate
Got Nuffin:
(I actually did this all by ear)
Spoon, Got Nuffin, Transference

Standard Tuning

Intro
--------------------------------------------------------------|
--------------------------------------------------------------|
--------------------------------------------------------------|
--------------------------------------------------------------|  (x5)
--------------------------------------------------------------|
--15--15--15--15--15--15--15----------------------------------|

--------------------------------------------------------------|
--------------------------------------------------------------|
--------------------------------------------------------------|
--------------------------------------------------------------|
------------------------------17------------------------------|
--15--15--15--15--15--15--15--15--15--15--15--15--15--15--15--|

--------------------------------------------------------------|
--------------------------------------------------------------|
--------------------------------------------------------------|
--------------------------------------------------------------|  (x3)
--------------------------------------------------------------|
--15--15--15--15--15--15--15----------------------------------|


Verse
----------------------------------------------------------------|
----------------------------------------------------------------|
----------------------------------------------------------------|
----------------------------------------------------------------|
----------------------------------------------------------------|
-3-3-3-3-3-3-3-3-3-3-3-3-3-3-3\-1-1-1-1-1-1-1-1-1-1-1-1-1-1-1/5-|

----------------------------------------------------------------|
----------------------------------------------------------------|
----------------------------------------------------------------|
----------------------------------------------------------------|
----------------------------------------------------------------|
-5-5-5-5-5-5-5-5-5-5-5-5-5\1/3-3-3-3-3-3-3-3-3-3-3-3-3-3-3-3----|

----------------------------------------------------------------|
----------------------------------------------------------------|
----------------------------------------------------------------|
----------------------------------------------------------------|
----------------------------------------------------------------|
-3-3-3-3-3-3-3-3-3-3-3-3-3-3-3\-1-1-1-1-1-1-1-1-1-1-1-1-1-1-1/5-|

----------------------------------------------------------------|
----------------------------------------------------------------|
----------------------------------------------------------------|
----------------------------------------------------------------|
----------------------------------------------------------------|
-5-5-5-5-5-5-5-5-5-5-5-5b-5b\1/3-3-3-3-3-3-3-3-3-3-3-3-3-3-3-3--|


Riff(with Uni-V, Rotary, Chorus, or Flange whatever you have. I use rotary.)
----------------------------------------------------------------|
---------8------------8-------------8~~~------------------------|
-----7-----7------7-----7-------7---------7---------------------|
-5-5---5--------5---5-------5-5---5-----------------------------|
----------------------------------------------------------------|
----------------------------------------------------------------|

----------------------------------------------------------------|
---------8------------8-------------8~~~------------------------|
-----7-----7------7-----7-------7-------------7--7~~~~~---------|
-5-5---5--------5---5-------5-5---5-----------5-----------------|
----------------------------------------------------------------|
----------------------------------------------------------------|

Verse 2
----------------------------------------------------------------|
----------------------------------------------------------------|
----------------------------------------------------------------|
----------------------------------------------------------------|
----------------------------------------------------------------|
-3-3-3-3-3-3-3-3-3-3-3-3-3-3-3\-1-1-1-1-1-1-1-1-1-1-1-1-1-1-1/5-|
                                                                  (x2)
----------------------------------------------------------------|
----------------------------------------------------------------|
----------------------------------------------------------------|
----------------------------------------------------------------|
----------------------------------------------------------------|
-5-5-5-5-5-5-5-5-5-5-5-5-5\1/3-3-3-3-3-3-3-3-3-3-3-3-3-3-3-3----|


Bends
----------------------------------------------------------------|
----------------------------------------------------------------|
---7b9--9-9--9--7~-7-5--5-5-5-4---------------------------------|
------------------------------5---------------------------------|
----------------------------------------------------------------|
----------------------------------------------------------------|
(all of the nines above are sevens, bent to the ninth fret.)

----------------------------------------------------------------|
----------------------------------------------------------------|
---5b7b5~~~~~~~~-----5-5-4--------------------------------------|
-----------------------5-5--------------------------------------|
----------------------------------------------------------------|
----------------------------------------------------------------|

Pre Solo Riff
----------------------------------------------------------------|
----------------------------------------------------------------|
----------------------------------------------------------------|
----7-7--7-7--7--7-7--7-7--7b9b7---7b9b7--7-5-------------------|
----------------------------------------------------------------|
----------------------------------------------------------------|

----------------------------------------------------------------|
----------------------------------------------------------------|
------------------------------------5-5-5-4---------------------|
----7-7--7-7--7--7-7--7-7--7b9b7----5-5-5-5---------------------|
----------------------------------------------------------------|
----------------------------------------------------------------|

Solo Riff (I use the same effect as the riff, but some dont hear it here)
----------------------------------------------------------------|
----------------------------------------------------------------|
--4-5-4-5h7-5-4-4-4-5-4-5s7-5-4-5\4-4-5~~~~~--------------------|
--5-5-5-5-5-5-5-4-------------------4---------------------------|
----------------------------------------------------------------|
----------------------------------------------------------------|

----------------------------------------------------------------|
--------------------------------------------0-0-0-0-0-0-0-------|
--4-5-5-4-5h7--5-4-4-4-5-4-5h7--5-4-5~~~~---5-5-5-7-5-4-4-------|
--5-5-5-5-5-5--5-5-4-5-5-5-5-5--5-5-5~~~~---5-5-5-5-5-5-5-------|
--------------------------------------------0-0-0-0-0-0-0-------|
----------------------------------------------------------------|

Verse 3
----------------------------------------------------------------|
----------------------------------------------------------------|
----------------------------------------------------------------|
----------------------------------------------------------------|
----------------------------------------------------------------|
-3-3-3-3-3-3-3-3-3-3-3-3-3-3-3\-1-1-1-1-1-1-1-1-1-1-1-1-1-1-1/5-|
                                                                  (x2)
----------------------------------------------------------------|
----------------------------------------------------------------|
----------------------------------------------------------------|
----------------------------------------------------------------|
----------------------------------------------------------------|
-5-5-5-5-5-5-5-5-5-5-5-5-5\1/3-3-3-3-3-3-3-3-3-3-3-3-3-3-3-3----|

More Bends
----------------------------------------------------------------------|
----------------------------------------------------------------------|
----5h7b--7b-7b-7b~-5-4~-4-4-4-4-4------------------------------------|
----5-5b--5b-5b-5b~-5-5~-5-5-5-5-4------------------------------------|
----------------------------------------------------------------------|
----------------------------------------------------------------------|

----------------------------------------------------------------|
----------------------------------------------------------------|
-----5~~-5~~-5~~-5~-5~-5-5--------------------------------------|
-----5~~-5~~-5~~-5~-5~-5-5--------------------------------------|
----------------------------------------------------------------|
----------------------------------------------------------------|

----------------------------7-7-7-5-5(immediatley mute this 5)--|
----------------------------------------------------------------|
-----5--5b7-7-7-7-7-7-7-7---------------------------------------|
-----5----------------------------------------------------------|
----------------------------------------------------------------|
----------------------------------------------------------------|
    (all sevens on the G string on the above bar are bent 5's)

----------------------------------------------------------------|
----0-0b~~~-----0~~~--------------------------------------------|
----5-5b~~~-----4~~~--------------------------------------------|
----7-7b~~~-----5~~~--------------------------------------------|
----0-0b~~~-----0~~~--------------------------------------------|
----------------------------------------------------------------|

Solo Rythym
-----------------------------------------------------------------|
-----------------------------------------------------------------|
-----------------------------------------------------------------|
-----------------------------------------------------------------|
-----------------------------------------------------------------|
-3-3-3-3-3-3-3-3\1-1-1-1-1-1-1-1/5-5-5-5-5-5-5-5-5-5-5-5-5-5-5-5-|


Solo Riff Variant 2
----------------------------------------------------------------|
----------------------------------------------------------------|
--4-5-4-5s7-5-4----5-4-5s7--5-4-5s4--4-5~~----------------------|
----------------5~-------------------5--------------------------|
----------------------------------------------------------------|
----------------------------------------------------------------|

------------------------------------------------------------------|
------------------------------------------------------------------|
--4-4-5-4-5h7--5-4---4-5-4-7-5-4-5~~~-----------------------------|
--5-5-5-5-5-5--5-5-5-5-5-5-5-5-5-5~~~-----------------------------|
------------------------------------------------------------------|
------------------------------------------------------------------|

Riff Variant 2
----------------------------------------------------------------|
-----------8-8-------------8~--------------8~~------------------|
------7--------7~~-----7------7~-------7-------7~~--------------|
--5-5-5-5------------5---5---------5-5---5----------------------|
----------------------------------------------------------------|
----------------------------------------------------------------|

----------------------------------------------------------------|
----------8~-------------8~--------------8~~~8------------------|
------7------7~------7------7~-------7--------------------------|
--5-5---5----------5---5---------5-5---5------------------------|
----------------------------------------------------------------|
----------------------------------------------------------------|

            
            
Suggest correction
Creating personal tab
Creating personal tab
You can edit any tab online and save it as your Personal.

You can edit, replace or remove any tab part or add personal notes – all changes will be seen only by you.

Personal tabs can be accessed anytime from any device, even offline.
Learn more »
comments
print report bad tab
guest
You may want to rate the tab now too:
select rating
Wanna post a correction for this tab? Suggest correction