Oops, an error
Loading. Please wait.

Hot Thoughts bass

by Spoon
388 views 21 this week
no commentswrite comment
1 2 3 4 5
3 more votes to show rating
add to favorites
×
Save as Personal and add changes to this tab that will be seen only by you. Learn more ›
×
You can save this tab as Personal to edit and correct it or add notes. All changes will be seen only by you. Learn more »
launch autoscroll
font size
0
reset
guitar tuner
edit
Autoscroll
slow
fast
+/-
esc
set tempo
stop
About this tab version
Removed reference to previous section. Was this info helpful? Yes No
[Main riff - 00:30]
   1 ^ + ^ 2 ^ + ^ 3 ^ + ^ 4 ^ + ^   1 ^ + ^ 2 ^ + ^ 3 ^ + ^ 4 ^ + ^
G|---------------------------------|---------------------------------|
D|---------------------------------|---------------------------------|
A|---------------------------------|---------------------------------|
E|-6---6---6-----6-----6-----------|-5---5---5-----5-----5-----------|

   1 ^ + ^ 2 ^ + ^ 3 ^ + ^ 4 ^ + ^   1 ^ + ^ 2 ^ + ^ 3 ^ + ^ 4 ^ + ^
G|---------------------------------|---------------------------------|
D|---------------------------------|---------------------------------|
A|---------------------------------|---------------------------------|
E|-4---4---4-----4-----4-----------|-8---8---8-----8-----8-----------|

   1 ^ + ^ 2 ^ + ^ 3 ^ + ^ 4 ^ + ^   1 ^ + ^ 2 ^ + ^ 3 ^ + ^ 4 ^ + ^
G|---------------------------------|---------------------------------|
D|---------------------------------|---------------------------------|
A|---------------------------------|---------------------------------|
E|-6---6---6-----6-----6-----------|-5---5---5-----5-----5-----------|

   1 ^ + ^ 2 ^ + ^ 3 ^ + ^ 4 ^ + ^   1 ^ + ^ 2 ^ + ^ 3 ^ + ^ 4 ^ + ^
G|---------------------------------|---------------------------------|
D|---------------------------------|---------------------------------|
A|-6---6---6-----6-----6-----------|-10--10--10----10----10------10\-|
E|---------------------------------|---------------------------------|

[Pre Guitar Riff - 00:48]
   1 ^ + ^ 2 ^ + ^ 3 ^ + ^ 4 ^ + ^   1 ^ + ^ 2 ^ + ^ 3 ^ + ^ 4 ^ + ^
G|---------------------------------|---------------------------------|
D|---------------------------------|---------------------------------|
A|-3---3---3-----3-----3-----------|-3---3---3-----3-----3-----------|
E|---------------------------------|---------------------------------|

   1 ^ + ^ 2 ^ + ^ 3 ^ + ^ 4 ^ + ^   1 ^ + ^ 2 ^ + ^ 3 ^ + ^ 4 ^ + ^
G|---------------------------------|---------------------------------|
D|---------------------------------|---------------------------------|
A|-3---3---3-----3-----3-----------|-3---3---3-----3-----3---3---3/--|
E|---------------------------------|---------------------------------|

[Guitar riff - 00:57]
   1 ^ + ^ 2 ^ + ^ 3 ^ + ^ 4 ^ + ^   1 ^ + ^ 2 ^ + ^ 3 ^ + ^ 4 ^ + ^
G|---------------------------------|---------------------------------|
D|---------------------------------|-6-------8-----10----------------|
A|-6---6---6-----8-----8---8----(6)|-----6-------8-------------------|
E|---------------------------------|---------------------8---8---8---| (x4)

[Main riff - 1:41]
   1 ^ + ^ 2 ^ + ^ 3 ^ + ^ 4 ^ + ^   1 ^ + ^ 2 ^ + ^ 3 ^ + ^ 4 ^ + ^
G|---------------------------------|---------------------------------|
D|---------------------------------|---------------------------------|
A|---------------------------------|---------------------------------|
E|-6---6---6-----6-----6-----------|-5---5---5-----5-----5-----------|

   1 ^ + ^ 2 ^ + ^ 3 ^ + ^ 4 ^ + ^   1 ^ + ^ 2 ^ + ^ 3 ^ + ^ 4 ^ + ^
G|---------------------------------|---------------------------------|
D|---------------------------------|---------------------------------|
A|---------------------------------|---------------------------------|
E|-4---4---4-----4-----4-----------|-8---8---8-----8-----8-----------|

   1 ^ + ^ 2 ^ + ^ 3 ^ + ^ 4 ^ + ^   1 ^ + ^ 2 ^ + ^ 3 ^ + ^ 4 ^ + ^
G|---------------------------------|---------------------------------|
D|---------------------------------|---------------------------------|
A|---------------------------------|---------------------------------|
E|-6---6---6-----6-----6-----------|-5---5---5-----5-----5-----------|

   1 ^ + ^ 2 ^ + ^ 3 ^ + ^ 4 ^ + ^   1 ^ + ^ 2 ^ + ^ 3 ^ + ^ 4 ^ + ^
G|---------------------------------|---------------------------------|
D|---------------------------------|---------------------------------|
A|---------------------------------|---------------------------------|
E|-4---4---4-----4-----4-----------|-8---8---8-----8-----8-----------|

   1 ^ + ^ 2 ^ + ^ 3 ^ + ^ 4 ^ + ^   1 ^ + ^ 2 ^ + ^ 3 ^ + ^ 4 ^ + ^
G|---------------------------------|---------------------------------|
D|---------------------------------|---------------------------------|
A|---------------------------------|---------------------------------|
E|-6---6---6-----6-----6-----------|-5---5---5-----5-----5-----------|

   1 ^ + ^ 2 ^ + ^ 3 ^ + ^ 4 ^ + ^   1 ^ + ^ 2 ^ + ^ 3 ^ + ^ 4 ^ + ^
G|---------------------------------|---------------------------------|
D|---------------------------------|---------------------------------|
A|-6---6---6-----6-----6-----------|-10--10--10----10----10----------|
E|---------------------------------|---------------------------------|

[Pre Guitar riff - 2:07]
   1 ^ + ^ 2 ^ + ^ 3 ^ + ^ 4 ^ + ^   1 ^ + ^ 2 ^ + ^ 3 ^ + ^ 4 ^ + ^
G|---------------------------------|---------------------------------|
D|---------------------------------|---------------------------------|
A|-3---3---3-----3-----3-----------|-3---3---3-----3-----3-----------|
E|---------------------------------|---------------------------------| (x2)

[Guitar riff - 2:16]
   1 ^ + ^ 2 ^ + ^ 3 ^ + ^ 4 ^ + ^   1 ^ + ^ 2 ^ + ^ 3 ^ + ^ 4 ^ + ^
G|---------------------------------|---------------------------------|
D|---------------------------------|-6-------8-----10----------------|
A|-6---6---6-----8-----8---8----(6)|-----6-------8-------------------|
E|---------------------------------|---------------------8---8---8---| (x2)

[Bridge - 2:25]
   1 ^ + ^ 2 ^ + ^ 3 ^ + ^ 4 ^ + ^   1 ^ + ^ 2 ^ + ^ 3 ^ + ^ 4 ^ + ^
G|---------------------------------|---------------------------------|
D|-10----------------------8h10----|-8-----------------------\-------|
A|---------------------------------|---------------------------------|
E|---------------------------------|---------------------------------|

   1 ^ + ^ 2 ^ + ^ 3 ^ + ^ 4 ^ + ^   1 ^ + ^ 2 ^ + ^ 3 ^ + ^ 4 ^ + ^
G|---------------------------------|---------------------------------|
D|---------------------------------|---------------------------------|
A|---------------------------------|---------------------------------|
E|-1 ------------------1---2---3---|-----------------------------4---|

   1 ^ + ^ 2 ^ + ^ 3 ^ + ^ 4 ^ + ^   1 ^ + ^ 2 ^ + ^ 3 ^ + ^ 4 ^ + ^
G|---------------------------------|---------------------------------|
D|---------------------------------|---------------------------------|
A|---------------------6\------3---|---------------------------------|
E|---------------------------------|-----------------------------4---|

   1 ^ + ^ 2 ^ + ^ 3 ^ + ^ 4 ^ + ^   1 ^ + ^ 2 ^ + ^ 3 ^ + ^ 4 ^ + ^
G|---------------------------------|---------------------------------|
D|---------------------------------|---------------------------------|
A|-----------------------------3---|---------------------------------|
E|-----------------3---------------|---------------------------------|

   1 ^ + ^ 2 ^ + ^ 3 ^ + ^ 4 ^ + ^   1 ^ + ^ 2 ^ + ^ 3 ^ + ^ 4 ^ + ^
G|---------------------------------|---------------------------------|
D|-10----------------------8h10----|-8-----------------------\-------|
A|---------------------------------|---------------------------------|
E|---------------------------------|---------------------------------|

   1 ^ + ^ 2 ^ + ^ 3 ^ + ^ 4 ^ + ^   1 ^ + ^ 2 ^ + ^ 3 ^ + ^ 4 ^ + ^
G|---------------------------------|---------------------------------|
D|---------------------------------|---------------------------------|
A|---------------------------------|---------------------------------|
E|-1 ------------------1---2---3---|-----------------------------4---|

   1 ^ + ^ 2 ^ + ^ 3 ^ + ^ 4 ^ + ^   1 ^ + ^ 2 ^ + ^ 3 ^ + ^ 4 ^ + ^
G|---------------------------------|---------------------------------|
D|---------------------------------|---------------------------------|
A|---------------------6\------3---|---------------------------------|
E|---------------------------------|-----------------------------4---|

   1 ^ + ^ 2 ^ + ^ 3 ^ + ^ 4 ^ + ^   1 ^ + ^ 2 ^ + ^ 3 ^ + ^ 4 ^ + ^
G|---------------------------------|---------------------------------|
D|---------------------------------|---------------------------------|
A|-----------------------------3---|---------------------------------|
E|-----------------3---------------|---------------------------------|

[Main riff - 3:00]
   1 ^ + ^ 2 ^ + ^ 3 ^ + ^ 4 ^ + ^   1 ^ + ^ 2 ^ + ^ 3 ^ + ^ 4 ^ + ^
G|---------------------------------|---------------------------------|
D|---------------------------------|---------------------------------|
A|---------------------------------|---------------------------------|
E|-6---6---6-----6-----6-----------|-5---5---5-----5-----5-----------|

   1 ^ + ^ 2 ^ + ^ 3 ^ + ^ 4 ^ + ^   1 ^ + ^ 2 ^ + ^ 3 ^ + ^ 4 ^ + ^
G|---------------------------------|---------------------------------|
D|---------------------------------|---------------------------------|
A|---------------------------------|---------------------------------|
E|-4---4---4-----4-----4-----------|-8---8---8-----8-----8-----------|

   1 ^ + ^ 2 ^ + ^ 3 ^ + ^ 4 ^ + ^   1 ^ + ^ 2 ^ + ^ 3 ^ + ^ 4 ^ + ^
G|---------------------------------|---------------------------------|
D|---------------------------------|---------------------------------|
A|---------------------------------|---------------------------------|
E|-6---6---6-----6-----6-----------|-5---5---5-----5-----5-----------|

   1 ^ + ^ 2 ^ + ^ 3 ^ + ^ 4 ^ + ^   1 ^ + ^ 2 ^ + ^ 3 ^ + ^ 4 ^ + ^
G|---------------------------------|---------------------------------|
D|---------------------------------|---------------------------------|
A|---------------------------------|---------------------------------|
E|-4---4---4-----4-----4-----------|-8---8---8-----8-----8-----------|

   1 ^ + ^ 2 ^ + ^ 3 ^ + ^ 4 ^ + ^   1 ^ + ^ 2 ^ + ^ 3 ^ + ^ 4 ^ + ^
G|---------------------------------|---------------------------------|
D|---------------------------------|---------------------------------|
A|---------------------------------|---------------------------------|
E|-6---6---6-----6-----6-----------|-5---5---5-----5-----5-----------|

   1 ^ + ^ 2 ^ + ^ 3 ^ + ^ 4 ^ + ^   1 ^ + ^ 2 ^ + ^ 3 ^ + ^ 4 ^ + ^
G|---------------------------------|---------------------------------|
D|---------------------------------|---------------------------------|
A|-6---6---6-----6-----6-----------|-10--10--10----10----10----------|
E|---------------------------------|---------------------------------|

[Outro - 3:27]
   1 ^ + ^ 2 ^ + ^ 3 ^ + ^ 4 ^ + ^   1 ^ + ^ 2 ^ + ^ 3 ^ + ^ 4 ^ + ^
G|---------------------------------|---------------------------------|
D|---------------------------------|---------------------------------|
A|-3---3---3-----3-----3-----------|-3---3---3-----3-----3-----------|
E|---------------------------------|---------------------------------| (x3)


************************************

| \    Slide down
| /    Slide up
| (n)  Ghost note
| h    Hammer-on

************************************

            
            
Suggest correction
Creating personal tab
Creating personal tab
You can edit any tab online and save it as your Personal.

You can edit, replace or remove any tab part or add personal notes – all changes will be seen only by you.

Personal tabs can be accessed anytime from any device, even offline.
Learn more »
Give kudos to tab author, rate the tab!
1 2 3 4 5
comments
print report bad tab
guest
You may want to rate the tab now too:
select rating
Wanna post a correction for this tab? Suggest correction