Oops, an error
Loading. Please wait.

Left Behind tab

version 1
version 1

Whole song

Interactive

19,268 views 51 this week
5 commentsread comments
1 2 3 4 5
x 3
add to favorites
×
Save as Personal and add changes to this tab that will be seen only by you. Learn more ›
×
You can save this tab as Personal to edit and correct it or add notes. All changes will be seen only by you. Learn more »
launch autoscroll
font size
0
reset
how to read this tab
guitar tuner
edit
Autoscroll
slow
fast
+/-
esc
set tempo
stop
Title: 13) Left Behind





                  4/4
                   W                 W                 W
                E|-----------------|-----------------|-----------------|
                B|-----------------|-----------------|-----------------|
                G|-0---------------|-0---------------|-0---------------|
Acoustic Guitar D|-----------------|-----------------|-----------------|
                A|-3---------------|-3---------------|-3---------------|
                E|-----------------|-----------------|-----------------|





                    12/8
   H       E E E E   E E E E E E E E E E E E   E E E E E E E E E E E E
E|-----------------|-------------------------|-------------------------|
B|---------3-1-----|-----0-3---0-----0-3---0-|-----0-3---0-----0-3---0-|
G|-------------0-2-|---------0-----------0---|---------0-----------0---|
D|-----------------|---0-----------0---------|---0-----------0---------|
A|-----------------|-------------------------|-------------------------|
E|-----------------|-3-----------3-----------|-3-----------3-----------|






   E E E E E E E E E E E E   E E E E E E E E E E E E   E E E E E E E E E E E E
E|-------------------------|-------------------------|-------2-----------2-----|
B|-------3---1-------3---1-|-------3---1-------3---1-|-----------3-----------3-|
G|---------0-----------0---|---------0-----------0---|---------0-----------0---|
D|-----2-----------2-------|-----2-----------2-------|-----4-----------4-------|
A|-3-----------3-----------|-3-----------3-----------|---2-----------2---------|
E|---3-----------3---------|---3-----------3---------|-0-----------0-----------|






   E E E E E E E E E E E E   E E E E E E E E E E E E   E E E E E E H.
E|-------2-----------2-----|-------3-----------3-----|-------------3-----------|
B|-----------3-----------3-|-----------3-----------3-|-----1-3-0---3-----------|
G|---------0-----------0---|-----0---0-------0---0---|-----------0-------------|
D|-----4-----------4-------|-------------------------|---2---------------------|
A|---2-----------2---------|---3-----------3---------|-0-----------3-----------|
E|-0-----------0-----------|-1-----------1-----------|-------------------------|






   Q   E Q   E Q   E Q   E   Q   E Q   E Q   E Q   E   E E E E E E E E E E E E
E|-------------------------|-------------------------|-------0-----------0-----|
B|-3-----1-----1-----0-----|-------0-----1-----0-----|-------------------------|
G|-------------------------|-2-----------------------|-----2---0-2-----2---0-2-|
D|-3-----2-----1-----0-----|-1-----0-----2-----0-----|-------------------------|
A|-------------------------|-------------------------|---4-----------4---------|
E|-----3-----3-----3-----3-|-----3-----3-----3-----3-|-5-----------5-----------|






   E E E E E E E E E E E E   E E E E E E H.            E E E E E E E E E E E E
E|-------3-----------3-----|-------3-----------------|-------------------------|
B|-------0---3-------0---3-|-------0---3-3-----------|-----0-3---0-----0-3---0-|
G|-----------0-----------0-|-----------0-0-----------|---------0-----------0---|
D|-----2-----------2-------|-----2-------------------|---0-----------0---------|
A|-3-----------3-----------|-3-----------3-----------|-------------------------|
E|---3-----------3---------|---3---------------------|-3-----------3-----------|






   E E E E E E E E E E E E   E E E E E E E E E E E E   E E E E E E E E E E E E
E|-------------------------|-------------------------|-------------------------|
B|-----0-3---0-----0-3---0-|-------3---1-------3---1-|-------3---1-------3---1-|
G|---------0-----------0---|---------0-----------0---|---------0-----------0---|
D|---0-----------0---------|-----2-----------2-------|-----2-----------2-------|
A|-------------------------|-3-----------3-----------|-3-----------3-----------|
E|-3-----------3-----------|---3-----------3---------|---3-----------3---------|






   E E E E E E E E E E E E   E E E E E E E E E E E E   E E E E E E E E E E E E
E|-------2-----------2-----|-------2-----------2-----|-------3-----------3-----|
B|-----------3-----------3-|-----------3-----------3-|-----------3-----------3-|
G|---------0-----------0---|---------0-----------0---|-----0---0-------0---0---|
D|-----4-----------4-------|-----4-----------4-------|-------------------------|
A|---2-----------2---------|---2-----------2---------|---3-----------3---------|
E|-0-----------0-----------|-0-----------0-----------|-1-----------1-----------|






   E E E E E E H.            E E E Q.    E E E Q.      E E E Q.    H.
E|-------------3-----------|-------------------------|-------------------------|
B|-----1-3-0---3-----------|-----1-3---------1-3-----|-----1-3-----3-----------|
G|-----------0-------------|-------------------------|---0---------5-----------|
D|---2---------------------|---2-----------2---------|-------------3-----------|
A|-0-----------3-----------|-0-----------0-----------|-3-----------------------|
E|-------------------------|-------------------------|-------------------------|






   E E E E E E E E E Q.      E E E Q.    E E E Q.      E E E E E E E E E E E E
E|-------------------------|-------------------------|-------------------------|
B|-----0-3---0-----0-3-----|-----0-3---------0-3-----|-------3---1-------3---1-|
G|---------0---------------|-------------------------|---------0-----------0---|
D|---0-----------0---------|---0-----------0---------|-----2-----------2-------|
A|-------------------------|-------------------------|-3-----------3-----------|
E|-3-----------3-----------|-3-----------3-----------|---3-----------3---------|






   E E E E E E E E E E E E   E E E E E E E E E E E E   E E E Q.    E E E Q.
E|-------------------------|-------2-----------2-----|-------------------------|
B|-------3---1-------3---1-|-----------3-----------3-|-------------------------|
G|---------0-----------0---|---------0-----------0---|-------0-----------0-----|
D|-----2-----------2-------|-----4-----------4-------|-----4-----------4-------|
A|-3-----------3-----------|---2-----------2---------|---2-----------2---------|
E|---3-----------3---------|-0-----------0-----------|-0-----------0-----------|






   E E E Q.    E E E Q.      E E E Q.    Q.    Q   E   Q   E Q   E Q   E Q   E
E|-------------------------|-------------------------|-------------------------|
B|-------3-----------3-----|-----1-3-----------------|-3-----1-----1-----0-----|
G|-----0-----------0-------|-------------0+----0-----|-------------------------|
D|-------------------------|---2---------------------|-3-----2-----1-----0-----|
A|---3-----------3---------|-0-----------3+----3-----|-------------------------|
E|-1-----------1-----------|-----------------------3-|-----3-----3-----3-----3-|






   Q   E Q   E Q   E Q   E   E E E E E E E E E E E E   E E E E E E E E E E E E
E|-------------------------|-------0-----------0-----|-------3-----------3-----|
B|-------0-----1-----0-----|-------------------------|-------0---3-------0---3-|
G|-2-----------------------|-----2---0-2-----2---0-2-|-----------0-----------0-|
D|-1-----0-----2-----0-----|-------------------------|-----2-----------2-------|
A|-------------------------|-0-4---------0-4---------|-3-----------3-----------|
E|-----3-----3-----3-----3-|-------------------------|---3-----------3---------|






   E E E E E E H.            E E E Q.    E E E Q.      E E E Q.    E E E Q.
E|-------3-----------------|-------------------------|-------------------------|
B|-------0---3+3-----------|-----0-3---------0-3-----|-----0-3---------0-3-----|
G|-----------0+0-----------|-------------------------|-------------------------|
D|-----2-------------------|---0-----------0---------|---0-----------0---------|
A|-3-----------3-----------|-------------------------|-------------------------|
E|---3---------------------|-3-----------3-----------|-3-----------3-----------|






   E E E Q.    E E E Q.      E E E Q.    E E E Q.      E E E Q.    E E E Q.
E|-------------------------|-------------------------|-------------------------|
B|-------3-----------3-----|-------3-----------3-----|-------------------------|
G|-------------------------|-------------------------|-------0-----------0-----|
D|-----2-----------2-------|-----2-----------2-------|-----4-----------4-------|
A|-3-----------3-----------|-3-----------3-----------|---2-----------2---------|
E|---3-----------3---------|---3-----------3---------|-0-----------0-----------|






   E E E Q.    E E E Q.      E E E Q.    E E E Q.      E E E Q   E H.
E|-------------------------|-------------------------|-------------3-----------|
B|-------------------------|-------3-----------3-----|-----1-3-----3-----------|
G|-------0-----------0-----|-----0-----------0-------|-------------------------|
D|-----4-----------4-------|-------------------------|---2---------------------|
A|---2-----------2---------|---3-----------3---------|-0---------2-3-----------|
E|-0-----------0-----------|-1-----------1-----------|-------------------------|






   E E E Q.    E E E Q.      E E E Q.    E E E Q.      E E E Q.    E E E Q.
E|-------------------------|-------------------------|-------------------------|
B|-----0-3---------0-3-----|-----0-3---------0-3-----|-------3-----------3-----|
G|-------------------------|-------------------------|-------------------------|
D|---0-----------0---------|---0-----------0---------|-----2-----------2-------|
A|-------------------------|-------------------------|-3-----------3-----------|
E|-3-----------3-----------|-3-----------3-----------|---3-----------3---------|






   E E E Q.    E E E Q.      E E E Q.    E E E Q.      E E E Q.    E E E Q.
E|-------------------------|-------------------------|-------------------------|
B|-------3-----------3-----|-------------------------|-------------------------|
G|-------------------------|-------0-----------0-----|-------0-----------0-----|
D|-----2-----------2-------|-----4-----------4-------|-----4-----------4-------|
A|-3-----------3-----------|---2-----------2---------|---2-----------2---------|
E|---3-----------3---------|-0-----------0-----------|-0-----------0-----------|






   E E E Q.    E E E Q.      E E E Q   E H.            E E E Q.    E E E Q.
E|-------------------------|-------------3-----------|-------------------------|
B|-------3-----------3-----|-----1-3-----3-----------|-----1-3---------1-3-----|
G|-----0-----------0-------|-------------------------|-------------------------|
D|-------------------------|---2---------------------|---2-----------2---------|
A|---3-----------3---------|-0---------2-3-----------|-0-----------0-----------|
E|-1-----------1-----------|-------------------------|-------------------------|






   E E E Q.    H.            E E E Q.    E E E Q.      E E E Q.    H.
E|-------------------------|-------------------------|-------------------------|
B|-----1-3-----3-----------|-----1-3---------1-3-----|-----1-3-----3-----------|
G|---0---------5-----------|-------------------------|---0---------5-----------|
D|-------------3-----------|---2-----------2---------|-------------3-----------|
A|-3-----------------------|-0-----------0-----------|-3-----------------------|
E|-------------------------|-------------------------|-------------------------|






   E E E Q.    E E E Q.      E. S E E. S E Q.    Q   E
E|-------------------------|---------------------------|
B|-----1-3---------1-3-----|---------------------------|
G|-------------------------|---------------------------|
D|---2-----------2---------|---------------------------|
A|-0-----------0-----------|-3--2+2-0------3+----3-----|
E|-------------------------|-----------3+3-1+----1---3-|






   Q   E Q   E Q   E Q   E   Q   E Q   E Q   E Q   E   E E E E E E E E E E E E
E|-------------------------|-------------------------|-------0-----------0-----|
B|-3-----1-----1-----0-----|-------0-----1-----0-----|-------------------------|
G|-------------------------|-2-----------------------|-----2---0-2-----2---0-2-|
D|-3-----2-----1-----0-----|-1-----0-----2-----0-----|-------------------------|
A|-------------------------|-------------------------|-0-4---------0-4---------|
E|-----3-----3-----3-----3-|-----3-----3-----3-----3-|-------------------------|






   E E E Q.    E E E Q.      E E E Q.    E E E Q.      E E E Q.    E E E Q.
E|-------------------------|-------------------------|-------------------------|
B|-------------------------|-------------------------|-------------------------|
G|-------------------------|-------------------------|-------------------------|
D|-----2+2---------2+2-----|-----2+2---------2+2-----|-----2+2---------2+2-----|
A|-3-----------3-----------|-3-----------3-----------|-3-----------3-----------|
E|---3-----------3---------|---3-----------3---------|---3-----------3---------|






   E E E Q.    H.            E E E E E E E E E E E E   E E E E E E E E E E E E
E|-------------3-----------|-------0-----------0-----|-------0-----------0-----|
B|-------------3-----------|-------------------------|-------------------------|
G|-------------0-----------|-----2---0-2-----2---0-2-|-----2---0-2-----2---0-2-|
D|-----2+2-----------------|-------------------------|-------------------------|
A|-3-----------3-----------|-0-4---------0-4---------|-0-4---------0-4---------|
E|---3---------------------|-------------------------|-------------------------|






   E E E E E E E E E E E E   E E E E E E E E E E E E   E E E E E E E E E E E E
E|-------3-----------3-----|-------3-----------3-----|-------0-----------0-----|
B|-------0---3-------0---3-|-------0---3-------0---3-|-------------------------|
G|-----------0-----------0-|-----------0-----------0-|-----2---0-2-----2---0-2-|
D|-----2-----------2-------|-----2-----------2-------|-------------------------|
A|-3-----------3-----------|-3-----------3-----------|-0-4---------0-4---------|
E|---3-----------3---------|---3-----------3---------|-------------------------|






   E E E E E E E E E E E E   E E E E E E E E E E E E   E E E E E E E E E E E E
E|-------0-----------0-----|-------3-----------3-----|-------3-----------3-----|
B|-------------------------|-------0---3-------0---3-|-------0---3-------0---3-|
G|-----2---0-2-----2---0-2-|-----------0-----------0-|-----------0-----------0-|
D|-------------------------|-----2-----------2-------|-----2-----------2-------|
A|-0-4---------0-4---------|-3-----------3-----------|-3-----------3-----------|
E|-------------------------|---3-----------3---------|---3-----------3---------|






   E E E E E E E E E E E E   E E E E E E E E E E E E   E E E E E E E E E E E E
E|-------------------------|-------------------------|-------------------------|
B|-------3---2-------3---2-|-------3---2-------3---2-|-------3---2-------3---2-|
G|---------0-----------0---|---------0-----------0---|---------0-----------0---|
D|-----4-----------4-------|-----4-----------4-------|-----4-----------4-------|
A|---2-----------2---------|---2-----------2---------|---2-----------2---------|
E|-0-----------0-----------|-0-----------0-----------|-0-----------0-----------|






   E E E E E E E E E E E E   W.                        W.
E|-------------------------|-------------------------|-------------------------|
B|-------3---2-------3---2-|-0+----------------------|-0-----------------------|
G|---------0-----------0---|-------------------------|-------------------------|
D|-----4-----------4-------|-2+----------------------|-2-----------------------|
A|---2-----------2---------|-------------------------|-------------------------|
E|-0-----------0-----------|-------------------------|-------------------------|




Created using Sibelius - http://www.sibelius.com/

            
            
Suggest correction
Creating personal tab
Creating personal tab
You can edit any tab online and save it as your Personal.

You can edit, replace or remove any tab part or add personal notes – all changes will be seen only by you.

Personal tabs can be accessed anytime from any device, even offline.
Learn more »
Give kudos to tab author, rate the tab!
1 2 3 4 5
comments
print report bad tab
5 comments total. Showing first comments.
0 reply
applefire4 52 Jan 15, 2009 04:03 PM

what do all of the letters mean?

0 reply
heeheeasquirrel 10 Jan 16, 2009 10:10 AM

yeah a key would be very helpful

+1 reply
pyjamallama 10 May 16, 2009 06:50 AM

W - Whole note
H - Half note
Q - Quarter note
E - Eighth note
S - Sixteenth note.

guest
Wanna post a correction for this tab? Suggest correction