Oops, an error
Loading. Please wait.

Another Night Alone tab

version 1
version 1

Whole song

Interactive

by SR-71
1,150 views 1 this week
no commentswrite comment
1 2 3 4 5
2 more votes to show rating
add to favorites
×
Save as Personal and add changes to this tab that will be seen only by you. Learn more ›
×
You can save this tab as Personal to edit and correct it or add notes. All changes will be seen only by you. Learn more »
launch autoscroll
font size
0
reset
how to read this tab
guitar tuner
edit
Autoscroll
slow
fast
+/-
esc
set tempo
stop
Author
Difficulty
Anotehr Night Alone - Sr-71

Tab by Lewis Bunney

Duration Legend
---------------
W - whole
H - half
Q - quarter
E - 8th
S - 16th
T - 32nd
X - 64th
. - note dotted
|-n-|  - n-tuplets


Tablature Legend
----------------
L - tied note
x - dead note
g - grace note
(n) - ghost note
> - accentuded note
NH - natural harmonic
AH - artificial harmonic
TH - tapped harmonic
SH - semi harmonic
PH - pitch harmonic
h - hammer on
p - pull off
b - bend
br - bendRelease
pb - preBend
pbr - preBendRelease
brb - bendReleaseBend
\n/ - tremolo bar dip
\n - tremolo bar dive
-/n - tremolo bar Release up
/n\ - tremolo bar inverted dip
/n - tremolo bar return
-\n - tremolo bar Release down
S - shift slide
s - legato slide
/ -  slide into from below or out of upwards
\ -  slide into from above or out of downwards
~ - vibrato
W - wide vibrato
tr - trill
TP - tremolo picking
T - tapping
S - slap
P - pop
< - fade in
^ - brush up
v - brush down

Guitar 1

Intro

     E  E  E   Q     E   E   E      E   E   E   Q     E   E   E   
E||-----------------------------|--------------------------------|
B||-----------------------------|--------------------------------|
G||--8--8--8--10----10--10--10--|--12--12--12--10----10--10--10--|
D||--x--x--x---x-----x---x---x--|---x---x---x---x-----x---x---x--|
A||--6--6--6---8-----8---8---8--|--10--10--10---8-----8---8---8--|
E||-----------------------------|--------------------------------|


  E  E  E   Q     E   E   E      E   E   E   Q     E   Q      
-----------------------------|-------------------------------|
-----------------------------|-------------------------------|
--8--8--8--10----10--10--10--|--12--12--12--10----10--10\----|
--x--x--x---x-----x---x---x--|---x---x---x---x-----x---x-----|
--6--6--6---8-----8---8---8--|--10--10--10---8-----8---8\----|
-----------------------------|-------------------------------|


  E  E  E   Q     E   E   E      E   E   E   Q     E   E   E   
-----------------------------|--------------------------------|
-----------------------------|--------------------------------|
--8--8--8--10----10--10--10--|--12--12--12--10----10--10--10--|
--x--x--x---x-----x---x---x--|---x---x---x---x-----x---x---x--|
--6--6--6---8-----8---8---8--|--10--10--10---8-----8---8---8--|
-----------------------------|--------------------------------|


  E  E  E   Q     E   E   E      E   E   E   Q     Q     E   
-----------------------------|------------------------------|
-----------------------------|------------------------------|
--8--8--8--10----10--10--10--|--12--12--12--10\----5S----8--|
--x--x--x---x-----x---x---x--|---x---x---x---x-----x-----x--|
--6--6--6---8-----8---8---8--|--10--10--10---8\----3S----6--|
-----------------------------|------------------------------|

 Verse

  H        H                                   H        Q    E  E   
--------------------|-----------|-----------|----------------------|-----|--|
--------------------|-----------|-----------|----------------------|-----|--|
--8-----------------|-----------|-----------|----------------8--x--|-----|--|
--x-----------------|-----------|-----------|----------------x--x--|-----|--|
--6-----------------|-----------|-----------|----------------6--x--|-----|--|
--------------------|-----------|-----------|-------------------x--|-----|--|

                Intro

              E  E  E   Q     E   E   E      E   E   E   Q     E   E   E   
-----|-----|-----------------------------|--------------------------------|
-----|-----|-----------------------------|--------------------------------|
-----|-----|--8--8--8--10----10--10--10--|--12--12--12--10----10--10--10--|
-----|-----|--x--x--x---x-----x---x---x--|---x---x---x---x-----x---x---x--|
-----|-----|--6--6--6---8-----8---8---8--|--10--10--10---8-----8---8---8--|
-----|-----|-----------------------------|--------------------------------|


  E  E  E   Q     E   E   E      E   E   E   Q     Q     E   
-----------------------------|------------------------------|
-----------------------------|------------------------------|
--8--8--8--10----10--10--10--|--12--12--12--10\----5S----8--|
--x--x--x---x-----x---x---x--|---x---x---x---x-----x-----x--|
--6--6--6---8-----8---8---8--|--10--10--10---8\----3S----6--|
-----------------------------|------------------------------|

 Verse

  H        H                                                               
--------------------|-----------|-----------|-----------|-----|-----|-----|
--------------------|-----------|-----------|-----------|-----|-----|-----|
--8-----------------|-----------|-----------|-----------|-----|-----|-----|
--x-----------------|-----------|-----------|-----------|-----|-----|-----|
--6-----------------|-----------|-----------|-----------|-----|-----|-----|
--------------------|-----------|-----------|-----------|-----|-----|-----|

        Bridge

        E  E  E  E  E  E  E  E     E  E  E  E  E  E  E  E   
-----|--------------------------|--------------------------|
-----|--------------------------|--------------------------|
-----|--6--6--6--6--6--6--6--6--|--5--5--5--5--5--5--5--5--|
-----|--6--6--6--6--6--6--6--6--|--6--6--6--6--6--6--6--6--|
-----|--4--4--4--4--4--4--4--4--|--6--6--6--6--6--6--6--6--|
-----|--------------------------|--4--4--4--4--4--4--4--4--|


  E  E  E  E  E  E  E  E     E  E  E  E  E  E  E  E   
--------------------------|--------------------------|
--------------------------|--------------------------|
--------------------------|--6--6--6--6--6--6--6--6--|
--8--8--8--8--8--8--8--8--|--6--6--6--6--6--6--6--6--|
--8--8--8--8--8--8--8--8--|--4--4--4--4--4--4--4--4--|
--6--6--6--6--6--6--6--6--|--------------------------|

Chorus

  E  E  E   Q     E   E   E      E   E   E   Q     E   E   E   
-----------------------------|--------------------------------|
-----------------------------|--------------------------------|
--8--8--8--10----10--10--10--|--12--12--12--10----10--10--10--|
--x--x--x---x-----x---x---x--|---x---x---x---x-----x---x---x--|
--6--6--6---8-----8---8---8--|--10--10--10---8-----8---8---8--|
-----------------------------|--------------------------------|


  E  E  E   Q     E   E   E      E   E   E   Q     Q     E   
-----------------------------|------------------------------|
-----------------------------|------------------------------|
--8--8--8--10----10--10--10--|--12--12--12--10\----5S----8--|
--x--x--x---x-----x---x---x--|---x---x---x---x-----x-----x--|
--6--6--6---8-----8---8---8--|--10--10--10---8\----3S----6--|
-----------------------------|------------------------------|

Verse

  H        H                                                               
--------------------|-----------|-----------|-----------|-----|-----|-----|
--------------------|-----------|-----------|-----------|-----|-----|-----|
--8-----------------|-----------|-----------|-----------|-----|-----|-----|
--x-----------------|-----------|-----------|-----------|-----|-----|-----|
--6-----------------|-----------|-----------|-----------|-----|-----|-----|
--------------------|-----------|-----------|-----------|-----|-----|-----|

         Bridge

        E  E  E  E  E  E  E  E     E  E  E  E  E  E  E  E   
-----|--------------------------|--------------------------|
-----|--------------------------|--------------------------|
-----|--6--6--6--6--6--6--6--6--|--5--5--5--5--5--5--5--5--|
-----|--6--6--6--6--6--6--6--6--|--6--6--6--6--6--6--6--6--|
-----|--4--4--4--4--4--4--4--4--|--6--6--6--6--6--6--6--6--|
-----|--------------------------|--4--4--4--4--4--4--4--4--|

                                                  Chorus

  E  E  E  E  E  E  E  E     H.           E  E     E  E  E   Q     E   E   E 
--------------------------|---------------------|---------------------------|
--------------------------|---------------------|---------------------------|
--------------------------|--6------------L--6--|--8--8--8--10----10--10--10|
--8--8--8--8--8--8--8--8--|--6------------L--6--|--x--x--x---x-----x---x---x|
--8--8--8--8--8--8--8--8--|--4------------L--4--|--6--6--6---8-----8---8---8|
--6--6--6--6--6--6--6--6--|---------------------|---------------------------|


   E   E   E   Q     E   E   E     E  E  E   Q     E   E   E   
--------------------------------|-----------------------------|
--------------------------------|-----------------------------|
--12--12--12--10----10--10--10--|--8--8--8--10----10--10--10--|
---x---x---x---x-----x---x---x--|--x--x--x---x-----x---x---x--|
--10--10--10---8-----8---8---8--|--6--6--6---8-----8---8---8--|
--------------------------------|-----------------------------|


   E   E   E   Q     E   Q        E  E  E   Q     E   E   E   
-------------------------------|-----------------------------|
-------------------------------|-----------------------------|
--12--12--12--10----10--10\----|--8--8--8--10----10--10--10--|
---x---x---x---x-----x---x-----|--x--x--x---x-----x---x---x--|
--10--10--10---8-----8---8\----|--6--6--6---8-----8---8---8--|
-------------------------------|-----------------------------|


   E   E   E   Q     E   E   E     E  E  E   Q     E   E   E   
--------------------------------|-----------------------------|
--------------------------------|-----------------------------|
--12--12--12--10----10--10--10--|--8--8--8--10----10--10--10--|
---x---x---x---x-----x---x---x--|--x--x--x---x-----x---x---x--|
--10--10--10---8-----8---8---8--|--6--6--6---8-----8---8---8--|
--------------------------------|-----------------------------|

                               Interlude

   E   E   E   Q     Q     E     E  E  E  E  E  E  E  E   
------------------------------|--------------------------|
------------------------------|--8--------8--------8-----|
--12--12--12--10\----5S----8--|-----8--------8--------8--|
---x---x---x---x-----x-----x--|--------8--------8--------|
--10--10--10---8\----3S----6--|--------------------------|
------------------------------|--------------------------|


  E  E  E  E  E  E  E  E     E  E  E  E  E  E  E  E   
--------------------------|--------------------------|
--8--------8--------8-----|--8--------8--------8-----|
-----8--------8--------8--|-----8--------8--------8--|
--------8--------8--------|--------8--------8--------|
--------------------------|--------------------------|
--------------------------|--------------------------|


  E  E  E  E  E  E  E  E     E  E  E  E  E  E  E  E   
--------------------------|--------------------------|
--8--------8--------8-----|--8--------8--------8-----|
-----8--------8--------8--|-----8--------8--------8--|
--------8--------8--------|--------8--------8--------|
--------------------------|--------------------------|
--------------------------|--------------------------|


  E  E  E  E  E  E  E  E     E  E  E  E  E  E  E  E   
--------------------------|--------------------------|
--8--------8--------8-----|--8--------8--------8-----|
-----8--------8--------8--|-----8--------8--------8--|
--------8--------8--------|--------8--------8--------|
--------------------------|--------------------------|
--------------------------|--------------------------|


                                PM PM    PM PM    PM  
  E  E  E  E  E  E  E  E     E  E  E  E  E  E  E  E   
--------------------------|--------------------------|
--8--------8--------8-----|--------------------------|
-----8--------8--------8--|--------------------------|
--------8--------8--------|--8--------8--------8-----|
--------------------------|--8--------8--------8-----|
--------------------------|--6--6--6--6--6--6--6--6--|

                            Chorus

     PM PM    PM PM                                      
  E  E  E  E  E  E  E  E     E  E  E   Q     E   E   E   
--------------------------|-----------------------------|
--------------------------|-----------------------------|
--------------------------|--8--8--8--10----10--10--10--|
--8--------8--------8-----|--x--x--x---x-----x---x---x--|
--8--------8--------8-----|--6--6--6---8-----8---8---8--|
--6--6--6--6--6--6--6--6--|-----------------------------|


   E   E   E   Q     E   E   E     E  E  E   Q     E   E   E   
--------------------------------|-----------------------------|
--------------------------------|-----------------------------|
--12--12--12--10----10--10--10--|--8--8--8--10----10--10--10--|
---x---x---x---x-----x---x---x--|--x--x--x---x-----x---x---x--|
--10--10--10---8-----8---8---8--|--6--6--6---8-----8---8---8--|
--------------------------------|-----------------------------|


   E   E   E   Q     Q     E     E  E  E  E  E  E  E  E   
------------------------------|--------------------------|
------------------------------|--8--------8--------8-----|
--12--12--12--10\----5S----8--|-----8--------8--------8--|
---x---x---x---x-----x-----x--|--------8--------8--------|
--10--10--10---8\----3S----6--|--------------------------|
------------------------------|--------------------------|


  E  E  E  E  E  E  E  E     E  E  E  E  E  E  E  E   
--------------------------|--------------------------|
--8--------8--------8-----|--8--------8--------8-----|
-----8--------8--------8--|-----8--------8--------8--|
--------8--------8--------|--------8--------8--------|
--------------------------|--------------------------|
--------------------------|--------------------------|


  E  E  E  E  E  E  E  E     E  E  E  E  E  E  E  E   
--------------------------|--------------------------|
--8--------8--------8-----|--8--------8--------8-----|
-----8--------8--------8--|-----8--------8--------8--|
--------8--------8--------|--------8--------8--------|
--------------------------|--------------------------|
--------------------------|--------------------------|


  E  E  E  E  E  E  E  E     E  E  E  E  E  E  E  E   
--------------------------|--------------------------|
--8--------8--------8-----|--8--------8--------8-----|
-----8--------8--------8--|-----8--------8--------8--|
--------8--------8--------|--------8--------8--------|
--------------------------|--------------------------|
--------------------------|--------------------------|
 
                            Bridge

  E  E  E  E  E  E  E  E     E  E  E  E  E  E  E  E   
--------------------------|--------------------------|
--8--------8--------8-----|--------------------------|
-----8--------8--------8--|--6--6--6--6--6--6--6--6--|
--------8--------8--------|--6--6--6--6--6--6--6--6--|
--------------------------|--4--4--4--4--4--4--4--4--|
--------------------------|--------------------------|


  E  E  E  E  E  E  E  E     E  E  E  E  E  E  E  E   
--------------------------|--------------------------|
--------------------------|--------------------------|
--5--5--5--5--5--5--5--5--|--------------------------|
--6--6--6--6--6--6--6--6--|--8--8--8--8--8--8--8--8--|
--6--6--6--6--6--6--6--6--|--8--8--8--8--8--8--8--8--|
--4--4--4--4--4--4--4--4--|--6--6--6--6--6--6--6--6--|


  E  E  E  E  E  E  E  E     E  E  E  E  E  E  E  E   
--------------------------|--------------------------|
--------------------------|--------------------------|
--6--6--6--6--6--6--6--6--|--6--6--6--6--6--6--6--6--|
--6--6--6--6--6--6--6--6--|--6--6--6--6--6--6--6--6--|
--4--4--4--4--4--4--4--4--|--4--4--4--4--4--4--4--4--|
--------------------------|--------------------------|

 Chorus

  E  E  E   Q     E   E   E      E   E   E   Q     E   E   E   
-----------------------------|--------------------------------|
-----------------------------|--------------------------------|
--8--8--8--10----10--10--10--|--12--12--12--10----10--10--10--|
--x--x--x---x-----x---x---x--|---x---x---x---x-----x---x---x--|
--6--6--6---8-----8---8---8--|--10--10--10---8-----8---8---8--|
-----------------------------|--------------------------------|


  E  E  E   Q     E   E   E      E   E   E   Q     E   Q      
-----------------------------|-------------------------------|
-----------------------------|-------------------------------|
--8--8--8--10----10--10--10--|--12--12--12--10----10--10\----|
--x--x--x---x-----x---x---x--|---x---x---x---x-----x---x-----|
--6--6--6---8-----8---8---8--|--10--10--10---8-----8---8\----|
-----------------------------|-------------------------------|


  E  E  E   Q     E   E   E      E   E   E   Q     E   E   E   
-----------------------------|--------------------------------|
-----------------------------|--------------------------------|
--8--8--8--10----10--10--10--|--12--12--12--10----10--10--10--|
--x--x--x---x-----x---x---x--|---x---x---x---x-----x---x---x--|
--6--6--6---8-----8---8---8--|--10--10--10---8-----8---8---8--|
-----------------------------|--------------------------------|


  E  E  E   Q     E   E   E      E   E   E   Q     Q     E   
-----------------------------|------------------------------|
-----------------------------|------------------------------|
--8--8--8--10----10--10--10--|--12--12--12--10\----5S----8--|
--x--x--x---x-----x---x---x--|---x---x---x---x-----x-----x--|
--6--6--6---8-----8---8---8--|--10--10--10---8\----3S----6--|
-----------------------------|------------------------------|


  E  E  E   Q     E   E   E      E   E   E   Q     E   E   E   
-----------------------------|--------------------------------|
-----------------------------|--------------------------------|
--8--8--8--10----10--10--10--|--12--12--12--10----10--10--10--|
--x--x--x---x-----x---x---x--|---x---x---x---x-----x---x---x--|
--6--6--6---8-----8---8---8--|--10--10--10---8-----8---8---8--|
-----------------------------|--------------------------------|


  E  E  E   Q     E   E   E      E   E   E   Q     E   Q      
-----------------------------|-------------------------------|
-----------------------------|-------------------------------|
--8--8--8--10----10--10--10--|--12--12--12--10----10--10\----|
--x--x--x---x-----x---x---x--|---x---x---x---x-----x---x-----|
--6--6--6---8-----8---8---8--|--10--10--10---8-----8---8\----|
-----------------------------|-------------------------------|


  E  E  E   Q     E   E   E      E   E   E   Q     E   E   E   
-----------------------------|--------------------------------|
-----------------------------|--------------------------------|
--8--8--8--10----10--10--10--|--12--12--12--10----10--10--10--|
--x--x--x---x-----x---x---x--|---x---x---x---x-----x---x---x--|
--6--6--6---8-----8---8---8--|--10--10--10---8-----8---8---8--|
-----------------------------|--------------------------------|


  E  E  E   Q     E   E   E      E   E   E   Q     Q     E   
-----------------------------|------------------------------|
-----------------------------|------------------------------|
--8--8--8--10----10--10--10--|--12--12--12--10\----5S----8--|
--x--x--x---x-----x---x---x--|---x---x---x---x-----x-----x--|
--6--6--6---8-----8---8---8--|--10--10--10---8\----3S----6--|
-----------------------------|------------------------------|


  W                   W                  
-------------------|-------------------||
-------------------|-------------------||
--8----------------|--L----------------||
--8----------------|--L----------------||
--6----------------|--L----------------||
-------------------|-------------------||




Guitar 2

Intro

     E  E  E  E  E  E  E  E     E  E  E  E  E  E  E  E   
E||--------------------------|--------------------------|
B||--------------------------|--------------------------|
G||--8--8--8--8--8--8--8--8--|--8--8--8--8--8--8--8--8--|
D||--8--8--8--8--8--8--8--8--|--8--8--8--8--8--8--8--8--|
A||--6--6--6--6--6--6--6--6--|--6--6--6--6--6--6--6--6--|
E||--------------------------|--------------------------|


  E  E  E  E  E  E  E  E     E  E  E  E  E  E  E  E   
--------------------------|--------------------------|
--------------------------|--------------------------|
--5--5--5--5--5--5--5--5--|--5--5--5--5--5--5--5--5--|
--6--6--6--6--6--6--6--6--|--6--6--6--6--6--6--6--6--|
--6--6--6--6--6--6--6--6--|--6--6--6--6--6--6--6--6--|
--4--4--4--4--4--4--4--4--|--4--4--4--4--4--4--4--4--|


  E  E  E  E  E  E  E  E     E  E  E  E  E  E  E  E   
--------------------------|--------------------------|
--------------------------|--------------------------|
--8--8--8--8--8--8--8--8--|--8--8--8--8--8--8--8--8--|
--8--8--8--8--8--8--8--8--|--8--8--8--8--8--8--8--8--|
--6--6--6--6--6--6--6--6--|--6--6--6--6--6--6--6--6--|
--------------------------|--------------------------|
                                                          Verse

  E  E  E  E  E  E  E  E     E  E  E  E  E  E  E  E     W                 
--------------------------|--------------------------|-------------------|
--------------------------|--------------------------|-------------------|
--5--5--5--5--5--5--5--5--|--5--5--5--5--5--5--5--5--|--8----------------|
--6--6--6--6--6--6--6--6--|--6--6--6--6--6--6--6--6--|--8----------------|
--6--6--6--6--6--6--6--6--|--6--6--6--6--6--6--6--6--|--6----------------|
--4--4--4--4--4--4--4--4--|--4--4--4--4--4--4--4--4--|-------------------|


  W                   W                   W                   W             
-------------------|-------------------|-------------------|----------------|
-------------------|-------------------|-------------------|----------------|
--L----------------|--8----------------|--L----------------|--8-------------|
--L----------------|--8----------------|--L----------------|--8-------------|
--L----------------|--6----------------|--L----------------|--6-------------|
-------------------|-------------------|-------------------|----------------|


  W                   W                   W                 
-------------------|-------------------|-------------------|
-------------------|-------------------|-------------------|
--L----------------|--8----------------|--L----------------|
--L----------------|--8----------------|--L----------------|
--L----------------|--6----------------|--L----------------|
-------------------|-------------------|-------------------|

Intro

  E  E  E  E  E  E  E  E     E  E  E  E  E  E  E  E   
--------------------------|--------------------------|
--------------------------|--------------------------|
--8--8--8--8--8--8--8--8--|--8--8--8--8--8--8--8--8--|
--8--8--8--8--8--8--8--8--|--8--8--8--8--8--8--8--8--|
--6--6--6--6--6--6--6--6--|--6--6--6--6--6--6--6--6--|
--------------------------|--------------------------|

                                                        Verse

  E  E  E  E  E  E  E  E     E  E  E  E  E  E  E  E     E  Q    E  Q    Q   
--------------------------|--------------------------|----------------------|
--------------------------|--------------------------|--8-------8-------9---|
--5--5--5--5--5--5--5--5--|--5--5--5--5--5--5--5--5--|--8--x----8--x----8---|
--6--6--6--6--6--6--6--6--|--6--6--6--6--6--6--6--6--|--8--x----8--x----8---|
--6--6--6--6--6--6--6--6--|--6--6--6--6--6--6--6--6--|--6--x----6--x----6---|
--4--4--4--4--4--4--4--4--|--4--4--4--4--4--4--4--4--|-----x-------x--------|


  E  Q    E  Q    Q       E  Q    E  Q    Q       E  Q    E  Q    Q     
-----------------------|-----------------------|-----------------------|
--8-------8-------9----|--8-------8-------9----|--8-------8-------9----|
--8-------8-------8----|--8--x----8--x----8----|--8-------8-------8----|
--8--x----8--x----8----|--8--x----8--x----8----|--8--x----8--x----8----|
--6--x----6--x----6----|--6--x----6--x----6----|--6--x----6--x----6----|
-----x-------x---------|-----x-------x---------|-----x-------x---------|


  E  Q    E  Q    Q       E  Q    E  Q    Q       E  Q    E  Q    Q     
-----------------------|-----------------------|-----------------------|
--8-------8-------9----|--8-------8-------9----|--8-------8-------9----|
--8--x----8--x----8----|--8-------8-------8----|--8--x----8--x----8----|
--8--x----8--x----8----|--8--x----8--x----8----|--8--x----8--x----8----|
--6--x----6--x----6----|--6--x----6--x----6----|--6--x----6--x----6----|
-----x-------x---------|-----x-------x---------|-----x-------x---------|
                         
                          Bridge

  E  Q    E  Q    Q       E  E  E  E  E  E  E  E     E  E  E  E  E  E  E  E  
-----------------------|--------------------------|-------------------------|
--8-------8-------9----|--------------------------|-------------------------|
--8-------8-------8----|--6--6--6--6--6--6--6--6--|--5--5--5--5--5--5--5--5-|
--8--x----8--x----8----|--6--6--6--6--6--6--6--6--|--6--6--6--6--6--6--6--6-|
--6--x----6--x----6----|--4--4--4--4--4--4--4--4--|--6--6--6--6--6--6--6--6-|
-----x-------x---------|--------------------------|--4--4--4--4--4--4--4--4-|


  E  E  E  E  E  E  E  E     E  E  E  E  E  E  E  E   
--------------------------|--------------------------|
--------------------------|--------------------------|
--------------------------|--6--6--6--6--6--6--6--6--|
--8--8--8--8--8--8--8--8--|--6--6--6--6--6--6--6--6--|
--8--8--8--8--8--8--8--8--|--4--4--4--4--4--4--4--4--|
--6--6--6--6--6--6--6--6--|--------------------------|

Chorus

  E  E  E  E  E  E  E  E     E  E  E  E  E  E  E  E   
--------------------------|--------------------------|
--------------------------|--------------------------|
--8--8--8--8--8--8--8--8--|--8--8--8--8--8--8--8--8--|
--8--8--8--8--8--8--8--8--|--8--8--8--8--8--8--8--8--|
--6--6--6--6--6--6--6--6--|--6--6--6--6--6--6--6--6--|
--------------------------|--------------------------|

                                                       Verse

  E  E  E  E  E  E  E  E     E  E  E  E  E  E  E  E     E  Q    E  Q    Q     
--------------------------|--------------------------|----------------------|
--------------------------|--------------------------|--8-------8-------9---|
--5--5--5--5--5--5--5--5--|--5--5--5--5--5--5--5--5--|--8--x----8--x----8---|
--6--6--6--6--6--6--6--6--|--6--6--6--6--6--6--6--6--|--8--x----8--x----8---|
--6--6--6--6--6--6--6--6--|--6--6--6--6--6--6--6--6--|--6--x----6--x----6---|
--4--4--4--4--4--4--4--4--|--4--4--4--4--4--4--4--4--|-----x-------x--------|


  E  Q    E  Q    Q       E  Q    E  Q    Q       E  Q    E  Q    Q     
-----------------------|-----------------------|-----------------------|
--8-------8-------9----|--8-------8-------9----|--8-------8-------9----|
--8-------8-------8----|--8--x----8--x----8----|--8-------8-------8----|
--8--x----8--x----8----|--8--x----8--x----8----|--8--x----8--x----8----|
--6--x----6--x----6----|--6--x----6--x----6----|--6--x----6--x----6----|
-----x-------x---------|-----x-------x---------|-----x-------x---------|


  E  Q    E  Q    Q       E  Q    E  Q    Q       E  Q    E  Q    Q     
-----------------------|-----------------------|-----------------------|
--8-------8-------9----|--8-------8-------9----|--8-------8-------9----|
--8--x----8--x----8----|--8-------8-------8----|--8--x----8--x----8----|
--8--x----8--x----8----|--8--x----8--x----8----|--8--x----8--x----8----|
--6--x----6--x----6----|--6--x----6--x----6----|--6--x----6--x----6----|
-----x-------x---------|-----x-------x---------|-----x-------x---------|
   
                        Bridge

  E  Q    E  Q    Q       E  E  E  E  E  E  E  E     E  E  E  E  E  E  E  E   
-----------------------|--------------------------|-------------------------|
--8-------8-------9----|--------------------------|-------------------------|
--8-------8-------8----|--6--6--6--6--6--6--6--6--|--5--5--5--5--5--5--5--5-|
--8--x----8--x----8----|--6--6--6--6--6--6--6--6--|--6--6--6--6--6--6--6--6-|
--6--x----6--x----6----|--4--4--4--4--4--4--4--4--|--6--6--6--6--6--6--6--6-|
-----x-------x---------|--------------------------|--4--4--4--4--4--4--4--4-|

                                                  Chorus

  E  E  E  E  E  E  E  E     W                   E  E  E  E  E  E  E  E   
--------------------------|-------------------|--------------------------|
--------------------------|-------------------|--------------------------|
--------------------------|--6----------------|--8--8--8--8--8--8--8--8--|
--8--8--8--8--8--8--8--8--|--6----------------|--8--8--8--8--8--8--8--8--|
--8--8--8--8--8--8--8--8--|--4----------------|--6--6--6--6--6--6--6--6--|
--6--6--6--6--6--6--6--6--|-------------------|--------------------------|


  E  E  E  E  E  E  E  E     E  E  E  E  E  E  E  E   
--------------------------|--------------------------|
--------------------------|--------------------------|
--8--8--8--8--8--8--8--8--|--5--5--5--5--5--5--5--5--|
--8--8--8--8--8--8--8--8--|--6--6--6--6--6--6--6--6--|
--6--6--6--6--6--6--6--6--|--6--6--6--6--6--6--6--6--|
--------------------------|--4--4--4--4--4--4--4--4--|


  E  E  E  E  E  E  E  E     E  E  E  E  E  E  E  E   
--------------------------|--------------------------|
--------------------------|--------------------------|
--5--5--5--5--5--5--5--5--|--8--8--8--8--8--8--8--8--|
--6--6--6--6--6--6--6--6--|--8--8--8--8--8--8--8--8--|
--6--6--6--6--6--6--6--6--|--6--6--6--6--6--6--6--6--|
--4--4--4--4--4--4--4--4--|--------------------------|


  E  E  E  E  E  E  E  E     E  E  E  E  E  E  E  E   
--------------------------|--------------------------|
--------------------------|--------------------------|
--8--8--8--8--8--8--8--8--|--5--5--5--5--5--5--5--5--|
--8--8--8--8--8--8--8--8--|--6--6--6--6--6--6--6--6--|
--6--6--6--6--6--6--6--6--|--6--6--6--6--6--6--6--6--|
--------------------------|--4--4--4--4--4--4--4--4--|

                            Bridge

  E  E  E  E  E  E  E  E     Q    Q    E  E  E  E     Q    Q    E  E  E  E   
--------------------------|------------------------|------------------------|
--------------------------|--4----4----4--4--4--4--|------------------------|
--5--5--5--5--5--5--5--5--|--5----5----5--5--5--5--|------------------------|
--6--6--6--6--6--6--6--6--|--5----5----5--5--5--5--|--6----6----6--6--6--6--|
--6--6--6--6--6--6--6--6--|--3----3----3--3--3--3--|--6----6----6--6--6--6--|
--4--4--4--4--4--4--4--4--|------------------------|--4----4----4--4--4--4--|


  E  E  E  E  E  E  E  E     E  E  E  E  E  E  E  E   
--------------------------|--------------------------|
--------------------------|--------------------------|
--8--8--8--8--8--8--8--8--|--5--5--5--5--5--5--5--5--|
--8--8--8--8--8--8--8--8--|--6--6--6--6--6--6--6--6--|
--6--6--6--6--6--6--6--6--|--6--6--6--6--6--6--6--6--|
--------------------------|--4--4--4--4--4--4--4--4--|


  E  E  E  E  E  E  E  E     E  E  E  E  E  E  E  E   
--------------------------|--------------------------|
--------------------------|--------------------------|
--5--5--5--5--5--5--5--5--|--------------------------|
--5--5--5--5--5--5--5--5--|--6--6--6--6--6--6--6--6--|
--3--3--3--3--3--3--3--3--|--6--6--6--6--6--6--6--6--|
--------------------------|--4--4--4--4--4--4--4--4--|


  E  E  E  E  E  E  E  E     E  E  E  E  E  E  E  E   
--------------------------|--------------------------|
--------------------------|--------------------------|
--8--8--8--8--8--8--8--8--|--5--5--5--5--5--5--5--5--|
--8--8--8--8--8--8--8--8--|--6--6--6--6--6--6--6--6--|
--6--6--6--6--6--6--6--6--|--6--6--6--6--6--6--6--6--|
--------------------------|--4--4--4--4--4--4--4--4--|

                                                      Chorus

  E  E  E  E  E  E  E  E     E  E  E  E  E  E  E  E     E   H.           E   
--------------------------|--------------------------|----------------------|
--------------------------|--------------------------|----------------------|
--------------------------|--------------------------|--8\------------------|
--8--6--6--8--6--6--8--6--|--8--6--6--8--6--6--8--6--|--8\------------------|
--8--6--6--8--6--6--8--6--|--8--6--6--8--6--6--8--6--|--6\------------------|
--6--6--6--6--6--6--6--6--|--6--6--6--6--6--6--6--6--|----------------------|


  Q    Q    Q    Q        E  E  E  E  E  E  E  E     E  E  E  E  E  E  E  E  
-----------------------|--------------------------|-------------------------|
-----------------------|--------------------------|-------------------------|
-----------------8\----|--5--5--5--5--5--5--5--5--|--5--5--5--5--5--5--5--5-|
-----------------8\----|--6--6--6--6--6--6--6--6--|--6--6--6--6--6--6--6--6-|
-----------------6\----|--6--6--6--6--6--6--6--6--|--6--6--6--6--6--6--6--6-|
-----------------------|--4--4--4--4--4--4--4--4--|--4--4--4--4--4--4--4--4-|


  E  E  E  E  E  E  E  E     E  E  E  E  E  E  E  E   
--------------------------|--------------------------|
--------------------------|--------------------------|
--8--8--8--8--8--8--8--8--|--8--8--8--8--8--8--8--8--|
--8--8--8--8--8--8--8--8--|--8--8--8--8--8--8--8--8--|
--6--6--6--6--6--6--6--6--|--6--6--6--6--6--6--6--6--|
--------------------------|--------------------------|


  E  E  E  E  E  E  E  E     E  E  E  E  E  E  E  E   
--------------------------|--------------------------|
--------------------------|--------------------------|
--5--5--5--5--5--5--5--5--|--5--5--5--5--5--5--5--5--|
--6--6--6--6--6--6--6--6--|--6--6--6--6--6--6--6--6--|
--6--6--6--6--6--6--6--6--|--6--6--6--6--6--6--6--6--|
--4--4--4--4--4--4--4--4--|--4--4--4--4--4--4--4--4--|


  E  E  E  E  E  E  E  E     E  E  E  E  E  E  E  E   
--------------------------|--------------------------|
--------------------------|--------------------------|
--8--8--8--8--8--8--8--8--|--8--8--8--8--8--8--8--8--|
--8--8--8--8--8--8--8--8--|--8--8--8--8--8--8--8--8--|
--6--6--6--6--6--6--6--6--|--6--6--6--6--6--6--6--6--|
--------------------------|--------------------------|


  E  E  E  E  E  E  E  E     E  E  E  E  E  E  E  E   
--------------------------|--------------------------|
--------------------------|--------------------------|
--5--5--5--5--5--5--5--5--|--5--5--5--5--5--5--5--5--|
--6--6--6--6--6--6--6--6--|--6--6--6--6--6--6--6--6--|
--6--6--6--6--6--6--6--6--|--6--6--6--6--6--6--6--6--|
--4--4--4--4--4--4--4--4--|--4--4--4--4--4--4--4--4--|


  E  E  E  E  E  E  E  E     E  E  E  E  E  E  E  E   
--------------------------|--------------------------|
--------------------------|--------------------------|
--6--6--6--6--6--6--6--6--|--5--5--5--5--5--5--5--5--|
--6--6--6--6--6--6--6--6--|--6--6--6--6--6--6--6--6--|
--4--4--4--4--4--4--4--4--|--6--6--6--6--6--6--6--6--|
--------------------------|--4--4--4--4--4--4--4--4--|


  E  E  E  E  E  E  E  E     E  E  E  E  E  E  E  E   
--------------------------|--------------------------|
--------------------------|--------------------------|
--------------------------|--6--6--6--6--6--6--6--6--|
--8--8--8--8--8--8--8--8--|--6--6--6--6--6--6--6--6--|
--8--8--8--8--8--8--8--8--|--4--4--4--4--4--4--4--4--|
--6--6--6--6--6--6--6--6--|--------------------------|


  E  E  E  E  E  E  E  E     E  E  E  E  E  E  E  E   
--------------------------|--------------------------|
--------------------------|--------------------------|
--6--6--6--6--6--6--6--6--|--8--8--8--8--8--8--8--8--|
--6--6--6--6--6--6--6--6--|--8--8--8--8--8--8--8--8--|
--4--4--4--4--4--4--4--4--|--6--6--6--6--6--6--6--6--|
--------------------------|--------------------------|


  E  E  E  E  E  E  E  E     E  E  E  E  E  E  E  E   
--------------------------|--------------------------|
--------------------------|--------------------------|
--8--8--8--8--8--8--8--8--|--5--5--5--5--5--5--5--5--|
--8--8--8--8--8--8--8--8--|--6--6--6--6--6--6--6--6--|
--6--6--6--6--6--6--6--6--|--6--6--6--6--6--6--6--6--|
--------------------------|--4--4--4--4--4--4--4--4--|


  E  E  E  E  E  E  E  E     E  E  E  E  E  E  E  E   
--------------------------|--------------------------|
--------------------------|--------------------------|
--5--5--5--5--5--5--5--5--|--8--8--8--8--8--8--8--8--|
--6--6--6--6--6--6--6--6--|--8--8--8--8--8--8--8--8--|
--6--6--6--6--6--6--6--6--|--6--6--6--6--6--6--6--6--|
--4--4--4--4--4--4--4--4--|--------------------------|


  E  E  E  E  E  E  E  E     E  E  E  E  E  E  E  E   
--------------------------|--------------------------|
--------------------------|--------------------------|
--8--8--8--8--8--8--8--8--|--5--5--5--5--5--5--5--5--|
--8--8--8--8--8--8--8--8--|--6--6--6--6--6--6--6--6--|
--6--6--6--6--6--6--6--6--|--6--6--6--6--6--6--6--6--|
--------------------------|--4--4--4--4--4--4--4--4--|


  E  E  E  E  E  E  E  E     E  E  E  E  E  E  E  E   
--------------------------|--------------------------|
--------------------------|--------------------------|
--5--5--5--5--5--5--5--5--|--8--8--8--8--8--8--8--8--|
--6--6--6--6--6--6--6--6--|--8--8--8--8--8--8--8--8--|
--6--6--6--6--6--6--6--6--|--6--6--6--6--6--6--6--6--|
--4--4--4--4--4--4--4--4--|--------------------------|


  E  E  E  E  E  E  E  E     E  E  E  E  E  E  E  E   
--------------------------|--------------------------|
--------------------------|--------------------------|
--8--8--8--8--8--8--8--8--|--5--5--5--5--5--5--5--5--|
--8--8--8--8--8--8--8--8--|--6--6--6--6--6--6--6--6--|
--6--6--6--6--6--6--6--6--|--6--6--6--6--6--6--6--6--|
--------------------------|--4--4--4--4--4--4--4--4--|


  E  E  E  E  E  E  E  E     E  E  E  E  E  E  E  E   
--------------------------|--------------------------|
--------------------------|--------------------------|
--5--5--5--5--5--5--5--5--|--8--8--8--8--8--8--8--8--|
--6--6--6--6--6--6--6--6--|--8--8--8--8--8--8--8--8--|
--6--6--6--6--6--6--6--6--|--6--6--6--6--6--6--6--6--|
--4--4--4--4--4--4--4--4--|--------------------------|


  E  E  E  E  E  E  E  E     E  E  E  E  E  E  E  E   
--------------------------|--------------------------|
--------------------------|--------------------------|
--8--8--8--8--8--8--8--8--|--5--5--5--5--5--5--5--5--|
--8--8--8--8--8--8--8--8--|--6--6--6--6--6--6--6--6--|
--6--6--6--6--6--6--6--6--|--6--6--6--6--6--6--6--6--|
--------------------------|--4--4--4--4--4--4--4--4--|


  E  E  E  E  E  E  E  E     W                   W                  
--------------------------|-------------------|-------------------||
--------------------------|-------------------|-------------------||
--5--5--5--5--5--5--5--5--|--8----------------|--L----------------||
--6--6--6--6--6--6--6--6--|--8----------------|--L----------------||
--6--6--6--6--6--6--6--6--|--6----------------|--L----------------||
--4--4--4--4--4--4--4--4--|-------------------|-------------------||

^_^ any comments email me Ericflathead@aol.com

            
            
Suggest correction
Creating personal tab
Creating personal tab
You can edit any tab online and save it as your Personal.

You can edit, replace or remove any tab part or add personal notes – all changes will be seen only by you.

Personal tabs can be accessed anytime from any device, even offline.
Learn more »
Give kudos to tab author, rate the tab!
1 2 3 4 5
comments
print report bad tab
guest
You may want to rate the tab now too:
select rating
Wanna post a correction for this tab? Suggest correction