Oops, an error
Loading. Please wait.

Cruel tab

version 2
version 2

Whole song

56,780 views 222 this week
2 commentsread comments
1 2 3 4 5
x 36
add to favorites
×
Save as Personal and add changes to this tab that will be seen only by you. Learn more ›
×
You can save this tab as Personal to edit and correct it or add notes. All changes will be seen only by you. Learn more »
launch autoscroll
font size
0
reset
how to read this tab
guitar tuner
edit
Autoscroll
slow
fast
+/-
esc
set tempo
stop
Author
Difficulty
intermediate
CRUEL - ST VINCENT

[Intro]

  F#                                  F
Bodies, can't you see what everybody wants from you?


[Verse 1]

F#
Forgive the kids, for they don't know how to live
         B               F#
Run the alleys casually cruel
Cruel, cruel

[Riff]
(w/ fuzz and some kind of high pass filter)

e|-----------------------------------------------------|
B|-----------------------------------------------------|
G|------6----------------6-----------------------------|
D|--6-8---8-6-------6-8---8-6-----6-8-6----------------|
A|------------9---------------9-----------6--6---------|
E|-----------------------------------------------------| x2


[Verse 2]

F#                                   F
Bodies, can't you see what everybody wants from you?
               E
For you could want that, too
F#
They could take or leave you
So they took you, and they left you
           B
How could they be casually cruel?

(The synth/marimba plays this bit)
e|-------------------------------------------------------------|
B|---------------------------11--------------------------------|
G|--11-11----11------11--13------13----------------------------|
D|--------11-----11--------------------------------------------|
A|-------------------------------------------------------------|
E|-------------------------------------------------------------|

(Then the riff again but with a different lick at the end every 2 bars)
e|-----------------------------------------------------|
B|-----------------------------------------------------|
G|------6----------------6-----------------------------|
D|--6-8---8-6-------6-8---8-6-----6-8-6----------------|
A|------------9---------------9-----------6--6---------|
E|-----------------------------------------------------|

e|-----------------------------------------------------|
B|-----------------------------------------------------|
G|------6----------------------------------------------|
D|--6-8---8-6-------6-8-6------------------------------|
A|------------9-----------9-6-6--9-6-------------------|
E|-----------------------------------9-6-9-6-4---------| x2

F#
Cruel, cruel, oh
B       F#
Cruel, cruel, oh


[Solo]
(w/ fuzz)

e|-------------------------------------------------------------|
B|-------------------------------------------------------------|
G|-------------------------------------------------------------|
D|-------------------------------------------------------------|
A|-------------------------------------------------------------|
E|--/9--/9--6-7-9-11-13-14-13--8-8---11-13-11--7-7----7-6-4-/16I


[Bridge]

F#                                    F
Bodies, can't you see what everybody wants from you?
              E                            C#
If you could want that, too, then you'll be happy


[Verse 3]

F#           G#m          A#m          B                E    B
You were the one waving flares in the air so they could see you
     G#m            A#m              B                                  E
And they were as laughter, blowing past ya, blowing fastly so they can see
B
Ya

F#
Cruel, cruel, oh
B        F#
Cruel, cruel, oh

e|-------9----------------9-----------------------------------|
B|--9-11---11-9------9-11---11-9----9-11-9--------------------|
G|--------------11---------------11--------8--8---------------|
D|------------------------------------------------------------|
A|------------------------------------------------------------|
E|------------------------------------------------------------|


e|--------9---------------------------------------------------|
B|--9-11---11-9------9-11-9-----------------------------------|
G|--------------11----------11-8-8-11-8-----------------------|
D|--------------------------------------11-8-11-8-------------|
A|------------------------------------------------11----------|
E|------------------------------------------------------------|

Later going on to

e|-----------------------------------------------------|
B|-14---/11-----14---/11-----14-----/11---11-----------|
G|-16b----------16b----------16b----------13b----------|
D|-----------------------------------------------------|
A|-----------------------------------------------------|
E|-----------------------------------------------------|


e|-----------------------------------------------------|
B|-14---/11-----14---/11-----14----/11----11-----------|
G|-16b----------16b----------16b----------13b--13b-----|
D|---------------------------------------------------11|
A|-----------------------------------------------------|
E|-----------------------------------------------------|
 

[Fade out]



************************************

| b  Bend
| /  Slide up

************************************

            
            
Suggest correction
Creating personal tab
Creating personal tab
You can edit any tab online and save it as your Personal.

You can edit, replace or remove any tab part or add personal notes – all changes will be seen only by you.

Personal tabs can be accessed anytime from any device, even offline.
Learn more »
comments
print report bad tab
2 comments total.
0 reply
hihi7 43 Dec 19, 2013 07:02 PM

Seems perfect to me, thanks!

+2 reply
lurad 40 Dec 21, 2015 02:50 PM

-6-8-6-------------------------
-------9-6-6--9-6--------------
------------------9-6-9-6-4---
this sounds wrong to me, anyone else?

guest
You may want to rate the tab now too:
select rating
Wanna post a correction for this tab? Suggest correction