Oops, an error
Loading. Please wait.

Laughing With A Mouth Of Blood tab

10,456 views 69 this week
3 commentsread comments
1 2 3 4 5
x 10
add to favorites
×
Save as Personal and add changes to this tab that will be seen only by you. Learn more ›
×
You can save this tab as Personal to edit and correct it or add notes. All changes will be seen only by you. Learn more »
launch autoscroll
font size
0
reset
how to read this tab
guitar tuner
edit
Autoscroll
slow
fast
+/-
esc
set tempo
stop
Laughing With A Mouth Of Blood - St. Vincent

Tune down 1/2 step to: Eb Ab Db Gb Bb eB

    Intro and Chorus riff

eb|-------------------------------------|
Bb|-------------------------------------|
Gb|----------------------2-1------------|
Db|-----6s4--2---2-----2-----2---2------|
Ab|---2--------2------------------------|
Eb|-0----------------2---------2--------|

eb|-----------------------------------|
Bb|-----------------------------------|
Gb|-----4-2-4-2-0-2--0-------0-2-0----|
Db|---0----------------2-0-2-------2--|
Ab|-----------------------------------|
Eb|-3---------------------------------|

    Chords

eb|----------------------------------|
Bb|----------------------------------|
Gb|-1---2--------5-------7-----------|
Db|-2---2--------5-------7-----------|
Ab|-2--------------------------------|
Eb|-0---2--------5-------7-----------|

   E   F#m7*    Am7     Bm7

*Sometimes pull off to the first fret on the G string


E
Just like an amnesiac, Trying to get my senses back
F#m7
Oh, where did they go?
E
Laughing with a mouth of blood, From a little spill I took
F#m7
Oh, what are you laughing at?
E
See I trade in my plot of land, For a plane to anywhere
F#m7
Oh, where do you go?
E
And I can't see the future, But I know its got big plans for me
F#m7
Oh what does it see?

 Chorus Riff ( E,F#,G,A )
All of my old friends aren't so friendly

All of my old haunts are now all haunting me


E
Holed up at the motel With the televangelist
F#m7
Oh what did he say?
E
At the bottom of the swimming pool With all the water out of it
F#m7
How'd you get in there?
E
If it's any consolation prize It's to my next of kin
F#m7
Oh to be so cruel
E
and I can't see the future But I know it's watching me
F#m7
Oh what will it see?

  Chorus Riff
All of my old friends aren't so friendly

All of my old haunts are now all haunting me

        Am7
Tell my sister that I miss her
                                  Bm7
Tell my brother that it gets much easier

        Am7
Tell my sister that I miss her
                                  Bm7
Tell my brother that it gets much easier

   Chorus Riff
All of my old friends aren't so friendly
And all of my old haunts are now all haunting me

            
            
Suggest correction
Creating personal tab
Creating personal tab
You can edit any tab online and save it as your Personal.

You can edit, replace or remove any tab part or add personal notes – all changes will be seen only by you.

Personal tabs can be accessed anytime from any device, even offline.
Learn more »
comments
print report bad tab
3 comments total.
0 reply
ig78 270 Apr 22, 2014 01:56 PM

I have this for the intro/chorus riff

eb-----------------------------------------------------------------
Bb-----------------------------------------------------------------
Gb----------------------2-1------------4--4-2-0-2p0-------0-----0--
Db-------6\4--2-------2------4-------0--------------2---2-----2----
Ab-----2--------2--------------0----------------------0-----0------
Eb---0------------0-2------------0-3-------------------------------

0 reply
santaclaus7 20 3 days ago

ig78, you are right except for one note! I watched the Official Music Video in slow motion and confirmed the tab.

eb-----------------------------------------------------------------
Bb-----------------------------------------------------------------
Gb----------------------2-1------------4---4-2-0-2-0-------0-----0-
Db-------6\4--2-------2------4-------0--------------2---2-----2----
Ab-----2--------2--------------0----------------------0-----0------
Eb---0------------0-2------------0-3-----3--------------------------

0 reply
toxic-nebulae 36 Feb 06, 2016 01:21 PM, edited at 06:22 pm

The second part of the intro tab is off in a couple of places; that second 4 should be an open Gb, and I think the last two notes should be reversed.

eb|-------------------------------------|
Bb|-------------------------------------|
Gb|-----4-4-2-0-2-0---0----0-2----0-----|
Db|---0-------------2---2-------2-------|
Ab|-------------------------------------|
Eb|-3-----------------------------------|

That's closer, at least.

guest
You may want to rate the tab now too:
select rating
Wanna post a correction for this tab? Suggest correction