Oops, an error
Loading. Please wait.

Flawed Design bass

version 1
version 1

Whole song

Interactive

by Stabilo
408 views 1 this week
no commentswrite comment
1 2 3 4 5
2 more votes to show rating
add to favorites
×
Save as Personal and add changes to this tab that will be seen only by you. Learn more ›
×
You can save this tab as Personal to edit and correct it or add notes. All changes will be seen only by you. Learn more »
launch autoscroll
font size
0
reset
guitar tuner
edit
Autoscroll
slow
fast
+/-
esc
set tempo
stop
Author
Difficulty
Well i found that there were no tabs for this originally so i decided to attempt it and
is my first tab and i know it isnt perfect but i know for a fact that it is alot better
nothing...its a great new song by them and i love all their tunes. I hope that this can 
used to get to a perfect tab of this song its not that hard but it changes the bass
around alot and just memorizing that is the only tough part...other than that its a fun 
to play...

Verse: 1 (0:20)

Riff 1
E---0--00--0-3--33--3------------5--5s8-7-5-3---------|
A------------------------5--55--5---------------------|
D-----------------------------------------------------|
G-----------------------------------------------------|

Riff 2
E---0--00--0-3--33--3------------5--5--5--5--5-------|
A------------------------5--55--5--------------------|
D----------------------------------------------------|
G----------------------------------------------------|

Riff 3
E---0--00--0-3--33--3------------5--5--5-5--3--0------|
A------------------------5--55--5---------------------|
D-----------------------------------------------------|
G-----------------------------------------------------|

Riff 4
E---0--00--0-3--33--3------------5-5s8-8-8-8-8-8------|
A------------------------5--55--5---------------------|
D-----------------------------------------------------|
G-----------------------------------------------------|

Chorus (x2)
Em, G, D, Am----->just follow the patter of the acoustic chords its easy then

Verse 2:

Riff 5: (x2)
E---0--00--03--33--3--0-5-7--0-5-7--7-7-5-3-0------------|
A--------------------------------------------------------|
D--------------------------------------------------------|
G--------------------------------------------------------|

Riff 1
Riff 4
Chorus (x2)

Bridge:

E--3--3--3----------3--3--3----------3--3--3--3---------3--3--3--3-----------------|
A----------5--5--5----------5--5--5-------------5--5--5------------55555555--------|0>ring
D----------------------------------------------------------------------------------|
G----------------------------------------------------------------------------------|

Riff 4
Chorus (repeat till the end)

well thats it......and be sure to e-mail me either if u find errors or comments in
and keep rockin'

            
            
Suggest correction
Creating personal tab
Creating personal tab
You can edit any tab online and save it as your Personal.

You can edit, replace or remove any tab part or add personal notes – all changes will be seen only by you.

Personal tabs can be accessed anytime from any device, even offline.
Learn more »
Give kudos to tab author, rate the tab!
1 2 3 4 5
comments
print report bad tab
guest
You may want to rate the tab now too:
select rating
Wanna post a correction for this tab? Suggest correction