Oops, an error
Loading. Please wait.

Could It Be intro tab

version 1
version 1

Intro

Whole song

by Staind
2,922 views 1 this week
3 commentsread comments
1 2 3 4 5
x 5
add to favorites
×
Save as Personal and add changes to this tab that will be seen only by you. Learn more ›
×
You can save this tab as Personal to edit and correct it or add notes. All changes will be seen only by you. Learn more »
launch autoscroll
font size
0
reset
how to read this tab
guitar tuner
edit
Autoscroll
slow
fast
+/-
esc
set tempo
stop
Author
Staind - Could It Be

tuning - half step down + E to C# (D + half step)

This is only the intro, as you can see. I'll try to figure out the rest of the
song. It's the main riff, when Mike turns on his distortions he only plays some
melody on octaves, which I don't know how to play:) I've only heard this record
three times but it's great song thug.

Struming isn't off course correct, because I don't know how to write it down:)
But i guess it's very simple and you'll get it by the first shot:) 
                                                                             
D#||----------------------|--------------------------|----------------------|
A#||----------------------|--------------------------|--8----8----8----8----|
F#||--7----7----7----7----|--12----12----12----12----|--x----x----x----x----|
C#||--7----7----7----7----|--12----12----12----12----|--9----9----9----9----|
G#||--5----5----5----5----|--10----10----10----10----|--7----7----7----7----|
C#||--5----5----5----5----|--10----10----10----10----|----------------------|


                            
--------------------------||
--------------------------||
--12----12----12----12----||
--12----12----12----12----||
--10----10----10----10----||
--10----10----10----10----||


Lyrics are included in CD book, so I won't write it. By the way, i don't like the
whole CD, but some songs are gr8, like Zoe Jane, Fare and Could it by. If you
know why Staind recorded the 8th song - Layen, or something like this, please
write me!! 

cye, dave on d9@wp.pl

            
            
Suggest correction
Creating personal tab
Creating personal tab
You can edit any tab online and save it as your Personal.

You can edit, replace or remove any tab part or add personal notes – all changes will be seen only by you.

Personal tabs can be accessed anytime from any device, even offline.
Learn more »
comments
print report bad tab
3 comments total.
+2 reply
fatwahn420 10 Nov 27, 2003 07:00 PM

it would have been easier to just say tune flat and drop D

+1 reply
nin_freak92 31 Dec 02, 2006 04:14 PM

on ur message at the bottom for why "Layne" was written, it's Aaron Lewis doing a tribute to Staley Layne, the dead Alice In Chains vocalist. Overdosed. Aaron and him were good friends i guess. But that's why the song was written and what it is about.

0 reply
mguitarb 113 Mar 21, 2013 01:44 PM

D#||----------------------|--------------------------|----------------------|
A#||----------------------|--------------------------|--8----8----7----7----|
F#||--7----7----7----7----|--12----12----12----12----|--x----x----x----x----|
C#||--7----7----7----7----|--12----12----12----12----|--9----9----9----9----|
G#||--5----5----5----5----|--10----10----10----10----|--7----7----7----7----|
C#||--5----5----5----5----|--10----10----10----10----|----------------------|


--------------------------||
--------------------------||
--12----12----12----12----||
--12----12----12----12----||
--10----10----10----10----||
--10----10----10----10----||

guest
You may want to rate the tab now too:
select rating
Wanna post a correction for this tab? Suggest correction