Oops, an error
Loading. Please wait.

Could It Be tab

version 1
version 1

Whole song

by Staind
3,542 views 1 this week
2 commentsread comments
1 2 3 4 5
x 3
add to favorites
×
Save as Personal and add changes to this tab that will be seen only by you. Learn more ›
×
You can save this tab as Personal to edit and correct it or add notes. All changes will be seen only by you. Learn more »
launch autoscroll
font size
0
reset
how to read this tab
guitar tuner
edit
Autoscroll
slow
fast
+/-
esc
set tempo
stop
Author
Difficulty
Band: Staind
Song Name: Could It Be
Tab by: cisco21c

==From Low to High==

Elec. Gtr. 1 tuned:

Ab Db Ab Db Eb Ab



Tablature Legend
----------------
L - tied note
s - slide





Ab|------------------------------|--------------------------------|
Eb|------------------------------|--------------------------------|
Db|--7----7--7-7-7--------x--12--|--L----12--12-12-12--12--12-----|
Ab|--5----5--5-5-5s--12---x--10--|--L----10--10-10-10--10--10-----|
Db|--5----5--5-5-5s--12---x--10--|--L----10--10-10-10--10--10-----|
Ab|------------------------------|--------------------------------|

  |----------------------------------|--------------------------------|
  |----------------------------------|--------------------------------|
  |--17----17--17-17-17--16---x--12--|--L----12--12-12-12--12--12-----|
  |--14----14--14-14-14--14---x--10--|--L----10--10-10-10--10--10-----|
  |--14----14--14-14-14--14---x--10--|--L----10--10-10-10--10--10-----|
  |----------------------------------|--------------------------------|

  |------------------------------|--------------------------------|
  |------------------------------|--------------------------------|
  |--7----7--7-7-7--------x--12--|--L----12--12-12-12--12--12-----|
  |--5----5--5-5-5s--12---x--10--|--L----10--10-10-10--10--10-----|
  |--5----5--5-5-5s--12---x--10--|--L----10--10-10-10--10--10-----|
  |------------------------------|--------------------------------|

  |----------------------------------|--------------------------------|
  |----------------------------------|--------------------------------|
  |--17----17--17-17-17--16---x--12--|--L-----------------------------|
  |--14----14--14-14-14--14---x--10--|--L-----------------------------|
  |--14----14--14-14-14--14---x--10--|--L-----------------------------|
  |----------------------------------|--------------------------------|


  #w/ dist.


  |------------------------------|--------------------------------|
  |------------------------------|--------------------------------|
  |--7----7--7-7-7--------x--12--|--L----12--12-12-12--12--12-----|
  |--5----5--5-5-5s--12---x--10--|--L----10--10-10-10--10--10-----|
  |--5----5--5-5-5s--12---x--10--|--L----10--10-10-10--10--10-----|
  |------------------------------|--------------------------------|

  |----------------------------------|--------------------------------|
  |----------------------------------|--------------------------------|
  |--17----17--17-17-17--16---x--12--|--L----12--12-12-12--12--12-----|
  |--14----14--14-14-14--14---x--10--|--L----10--10-10-10--10--10-----|
  |--14----14--14-14-14--14---x--10--|--L----10--10-10-10--10--10-----|
  |----------------------------------|--------------------------------|

  |------------------------------|--------------------------------|
  |------------------------------|--------------------------------|
  |--7----7--7-7-7--------x--12--|--L----12--12-12-12--12--12-----|
  |--5----5--5-5-5s--12---x--10--|--L----10--10-10-10--10--10-----|
  |--5----5--5-5-5s--12---x--10--|--L----10--10-10-10--10--10-----|
  |------------------------------|--------------------------------|

  |----------------------------------|--------------------------------|
  |----------------------------------|--------------------------------|
  |--17----17--17-17-17--16---x--12--|--L-----------------------------|
  |--14----14--14-14-14--14---x--10--|--L-----------------------------|
  |--14----14--14-14-14--14---x--10--|--L-----------------------------|
  |----------------------------------|--------------------------------|


  #VERSE (clean-tone)


  |---------------------------------|--------------------------------|
  |-------0------14--L--------------|------0------15--L--14----------|
  |*---------12---------12----------|---------12-------------12------|
  |*--14--------------------14------|--14------------------------14--|
  |---14------------------------14--|--14----------------------------|
  |---------------------------------|--------------------------------|

									3x
  |-------------------------------|-------------------------------------||
  |------0------14--L-------------|------10-----------------------------||
  |---------12---------12---------|--12------10--12--(12)p--10---------*||
  |--14--------------------14-----|--10-------------------------10-----*||
  |--14------------------------0--|--10-----------------------------0---||
  |-------------------------------|-------------------------------------||


  #CHORUS (w/ dist.)

  |-------------------------------|--------------------------------|
  |-------------------------------|--------------------------------|
  |*--7----7--7-7-7--------x--12--|--L----12--12-12-12--12--12-----|
  |*--5----5--5-5-5s--12---x--10--|--L----10--10-10-10--10--10-----|
  |---5----5--5-5-5s--12---x--10--|--L----10--10-10-10--10--10-----|
  |-------------------------------|--------------------------------|

								      x3
  |----------------------------------|--------------------------------||
  |----------------------------------|--------------------------------||
  |--17----17--17-17-17--16---x--12--|--L----12--12-12-12--12--12----*||
  |--14----14--14-14-14--14---x--10--|--L----10--10-10-10--10--10----*||
  |--14----14--14-14-14--14---x--10--|--L----10--10-10-10--10--10-----||
  |----------------------------------|--------------------------------||

  |------------------------------|--------------------------------|
  |------------------------------|--------------------------------|
  |--7----7--7-7-7--------x--12--|--L----12--12-12-12--12--12-----|
  |--5----5--5-5-5s--12---x--10--|--L----10--10-10-10--10--10-----|
  |--5----5--5-5-5s--12---x--10--|--L----10--10-10-10--10--10-----|
  |------------------------------|--------------------------------|

  |----------------------------------|--------------------------------|
  |----------------------------------|--------------------------------|
  |--17----17--17-17-17--16---x--12--|--L-----------------------------|
  |--14----14--14-14-14--14---x--10--|--L-----------------------------|
  |--14----14--14-14-14--14---x--10--|--L-----------------------------|
  |----------------------------------|--------------------------------|


  #BRIDGE (w/ dist.)
    
  |-----------------------|--------------------------|
  |-----------------------|--------------------------|
  |*------------9----9----|--------------10----10----|
  |*--7------7--7----7----|--10------10--10----10----|
  |---9------9--9----9----|--10------10--10----10----|
  |---7------7--7----7----|--10------10--10----10----|

						     4x
  |-----------------------|--------------------------||
  |-----------------------|--------------------------||
  |--5------5--5----5-----|-------------------------*||
  |--5------5--5----5--5--|--L--5----5--L--5--5--5--*||
  |--5------5--5----5--4--|--L--4----4--L--4--4--4---||
  |-----------------------|--------------------------||


  #INTERLUDE (clean-tone)


  |--------------------------------|--------------------------------|
  |------0------14--L--------------|------0------15--L--14----------|
  |---------12---------12----------|---------12-------------12------|
  |--14--------------------14------|--14------------------------14--|
  |--14------------------------14--|--14----------------------------|
  |--------------------------------|--------------------------------|

  |-------------------------------|------------------------------------|
  |------0------14--L-------------|------10----------------------------|
  |---------12---------12---------|--12------10--12--(12)p--10---------|
  |--14--------------------14-----|--10-------------------------10-----|
  |--14------------------------0--|--10-----------------------------0--|
  |-------------------------------|------------------------------------|

  |--------------------------------|--------------------------------|
  |------0------14--L--------------|------0------15--L--14----------|
  |---------12---------12----------|---------12-------------12------|
  |--14--------------------14------|--14------------------------14--|
  |--14------------------------14--|--14----------------------------|
  |--------------------------------|--------------------------------|

  |-------------------------------|---------------------|
  |------0------14--L-------------|---------------------|
  |---------12---------12---------|--12-----------------|
  |--14--------------------14-----|--10-----------------|
  |--14------------------------0--|--10-----------------|
  |-------------------------------|---------------------|


  #OUTRO (w/ dist)

  |-------------------------------|--------------------------------|
  |-------------------------------|--------------------------------|
  |*--7----7--7-7-7--------x--12--|--L----12--12-12-12--12--12-----|
  |*--5----5--5-5-5s--12---x--10--|--L----10--10-10-10--10--10-----|
  |---5----5--5-5-5s--12---x--10--|--L----10--10-10-10--10--10-----|
  |-------------------------------|--------------------------------|

								      x3
  |----------------------------------|--------------------------------||
  |----------------------------------|--------------------------------||
  |--17----17--17-17-17--16---x--12--|--L----12--12-12-12--12--12----*||
  |--14----14--14-14-14--14---x--10--|--L----10--10-10-10--10--10----*||
  |--14----14--14-14-14--14---x--10--|--L----10--10-10-10--10--10-----||
  |----------------------------------|--------------------------------||

  |------------------------------|--------------------------------|
  |------------------------------|--------------------------------|
  |--7----7--7-7-7--------x--12--|--L----12--12-12-12--12--12-----|
  |--5----5--5-5-5s--12---x--10--|--L----10--10-10-10--10--10-----|
  |--5----5--5-5-5s--12---x--10--|--L----10--10-10-10--10--10-----|
  |------------------------------|--------------------------------|

  |----------------------------------|--------------------------------|
  |----------------------------------|--------------------------------|
  |--17----17--17-17-17--16---x--12--|--L----12--12-12-12--12--12-----|
  |--14----14--14-14-14--14---x--10--|--L----10--10-10-10--10--10-----|
  |--14----14--14-14-14--14---x--10--|--L----10--10-10-10--10--10-----|
  |----------------------------------|--------------------------------|

  |-------------------|
  |-------------------|
  |--L----------------|
  |--L----------------|
  |--L----------------|
  |-------------------|

            
            
Suggest correction
Creating personal tab
Creating personal tab
You can edit any tab online and save it as your Personal.

You can edit, replace or remove any tab part or add personal notes – all changes will be seen only by you.

Personal tabs can be accessed anytime from any device, even offline.
Learn more »
Give kudos to tab author, rate the tab!
1 2 3 4 5
comments
print report bad tab
2 comments total.
0 reply
soldierkahn 10 Jul 02, 2008 02:07 PM

Fabulous job man, now just tab out the second and thrid guitars in the background and youll be set.

0 reply
HGF 205 Nov 15, 2008 09:25 AM

I give you only four stars, cause the verse and the interlude dont sound right to me, the rest of the song is great

and thats the second guitar you can hear in the chorus
same tuning obviously
8--8-88-8/17---15--15-15-1515-15/17-171717/2020
x--x-xx-x-------x---x--x--x-x--x-----x-x-x----x
5--5-55-5/14---12--12-12-1212-12/14-141414/1717
-----------------------------------------------
-----------------------------------------------
-----------------------------------------------
_
\12--1212-12/15-12-10-8--8-8-88|8/10-101010/12-12\
--x---x-x--x-----x--x-x--x-x-xx|x-----x-x-x-----x
\-9---9-9--9/12--9--7-5--5-5-55|5/-7--7-7-7/-9--9
-------------------------------|----------------
-------------------------------|----------------
-------------------------------|----------------

good tab though man

guest
You may want to rate the tab now too:
select rating
Wanna post a correction for this tab? Suggest correction