Oops, an error
Loading. Please wait.
We have an official Everything Changes tab made by UG professional guitarists. Check out the tab »
×
by Staind
8,326 views 1 this week
2 commentsread comments
1 2 3 4 5
x 6
add to favorites
×
Save as Personal and add changes to this tab that will be seen only by you. Learn more ›
×
You can save this tab as Personal to edit and correct it or add notes. All changes will be seen only by you. Learn more »
launch autoscroll
font size
0
reset
how to read this tab
guitar tuner
edit
Autoscroll
slow
fast
+/-
esc
set tempo
stop
Author
Difficulty
-------------------------------------------------------------------------------
                             Everything Changes - Staind
-------------------------------------------------------------------------------
Tabbed by:Omar aka Staind 915
Email:cowboyz915@yahoo.com

What's up? I'm back with another tab from my favorite band. And what I
noticed before on my first tab is that #1 they put it in the wrong song.
I tabbed "Take This" not Take It. So #2 some of the stuff came out 
wrong but it didnt affect the way you're playing it si aw well right?
Ok this song is Everything Changes from their Chapter V album. One of
the best off of it. So I hope you guys enjoy this song as much as I did.

Ok, this song is pretty easy so I'm putting Aarons' part as well as
Mikes part.

Acoustic Gtr : Standard(you could put it donw 1/2 step if you want)
Electric Gtr 1 w/Clean Tone : Standard or ADADAD (both sound awesome.)
Electric Gtr 2 w/Distortion : Same as guitar 1.

Ok I'm putting Aaron's part first since it's him who starts
the song.

                 E 
If you just walked away,
               Asus2
What could I really----say,
                C#m7(on 4th fret)
Would it matter anyway,
                       Asus2
Would it change how you feel

**REPEAT THROUGH OUT SONG!!!!!**


Electric Gtr 1 w/ Clean Tone

Tuning: eBGDAE or ADADAD which ever you like......


 **VERSE**

    Lryics:
 Verse 1 :I   am___ the          mess______            you__________________

 Verse 2 :Sometimes   the        things                 I
e|-------------------4-------5h7---------------------------------------------|
B|-----------5-------------------------5----------------------5--------5-----|
G|----4--------------------------------------4----------4----------4---------|
D|------------------------------------------------6--------------------------|
A|---------------------------------------------------------------------------|
E|---------------------------------------------------------------------------|

   ..."Chose,               The               Clos-et___ you

   ..."Say                  In                 Mo-ments__  of
e|------7-------------------------------------7------------------------------|
B|------------------5-------------------------------5------------------------|
G|-----------------------4---------4--------------------4--------4-----------|
D|----------------------------6------------------------------6---------------|
A|---------------------------------------------------------------------------|
E|---------------------------------------------------------------------------|

....can      -       not                        close                  The

....dis      -        ar            -            ray.                  Suc-
e|--4h5-------------------------------------------5--------------------------|
B|---------5--------------------------5-------------------5------------------|
G|---------------4----------------4-------4--------------------4---------4---|
D|------------------------7-----------------------------------------7--------|
A|---------------------------------------------------------------------------|
E|---------------------------------------------------------------------------|

....dev - il_______   in     you     I      sup - pose.__________

....cumb-ing_______   to      the    games_____    we     play_________
e|---5------------------------------2h4--------------------------------------|
B|----------------5----------------------------5----------------------5------|
G|--------------------4--------4----------------------4------------4-----4---|
D|-------------------------7---------------------------------6---------------|
A|---------------------------------------------------------------------------|
E|---------------------------------------------------------------------------|
             ....Cause'  the  wounds     nev  -  er     heal_____________

             .... to     make  sure      that    it's    real____________
e|-4---------------------------4----------------------------------4h5p4------|
B|-----5---------------------------------5--------------------------------5--|
G|----------4----------4-----------------------4---------4-------------------|
D|---------------6----------------------------------6------------------------|
A|---------------------------------------------------------------------------|
E|---------------------------------------------------------------------------|
    --Pre-Chorus--
e|-----------4h5p4-------------4h5p4----------------------------------7------|
B|---------------------5------------------5------------------5---------------|
G|-------------------------------------------------4-------------------------|
D|---------------------------------------------------------------------------|
A|---------------------------------------------------------------------------|
E|---------------------------------------------------------------------------|
  REPEAT TWICE right before Chorus starts
e|------------------------------------------------------0--------------------|
B|---------0----------------0---------------------------0--------------------|
G|---------2----------------2-----------2---------------2--------------------|
D|---------2----------------2-----------2------------------------------------|
A|---------0----------------------------0------------------------------------|
E|---------------------------------------------------------------------------|
   Repeat TWICE^^^^^^^^^^

Chorus:


 ELECTRIC GTR 2 / Distortion

                      But    Ev  -  'rything  Chang - es
e|-------------------------------0-------------------------------------------|
B|------------------------------------0--------------------------------------|
G|--------------------1------------------------1-----------------------------|
D|------2-------2---------2--------------------------2------2----------------|
A|------2-------2-------------------------------------------2----------------|
E|------0---------------------------------------------------0----------------|
  
             If     I_________ could____    
e|-------------------------0-------------------------------------------------|
B|-----------------------------0---------------------------------------------|
G|---------------1--------------------------1--------------------------------|
D|----2--------------2--------------------------------2----------------------|
A|----2----------------------------------------------------------------------|
E|---------------------------------------------------------------------------|


                              Turn back the years_______if       you could
e|----------------------------0--------------------------------------0-------|
B|------------------0--------------0--------------------------0---------0----|
G|------2----2------------2--------------2---------2------2-------2--------2-|
D|------2----2-------------------------------2-----2------2-----------------2|
A|------0------------------------------------------0-------------------------|
E|---------------------------------------------------------------------------|
                     Learn  to  for - give___me,     then     I      could
e|---------------------------------------------------------------------------|
B|---4h5-------5-----4h5p4----------------4h5--------5-------4h5p4-----------|
G|---6-------------6---6--------6---------6--------------6-----6-------6--2--|
D|---6------6----------6------------6-----6-------6------------6-------------|
A|---4-----------------4------------------4--------------------4-------------|
E|---------------------------------------------------------------------------|
  

     learn                to_________              feel.   *repeat this 4x*
e|-----------------------0---------------------------------------------------|
B|---------------0-------------0---------------------------------0---0-------|
G|----2------2-------2-------------------2------------------2----2---2-------|
D|----2------2---------------------------------2------------2----2---2-------|
A|----0-----------------------------------------------------0----0---0-------|
E|---------------------------------------------------------------------------|


*****GO TO SECOND VERSE******

(AFTER SECOND CHORUS)

  ---GUITAR SOLO---


  Electric Gtr w/ Distortion     b=bend. and i mean BEND!!!!!!!
                                (b)=quick bend 

e|---------------------------------------------------------------------------|
B|--------7b-------(7)----7b7h----5-------4---4-4-4h5------------------------|
G|---------------------------------------------------------------------------|
D|---------------------------------------------------------------------------|
A|---------------------------------------------------------------------------|
E|---------------------------------------------------------------------------|

e|---------------------------------------------------------------------------|
B|---------------------------------------------------------------------------|
G|--------6----------6----------(6)/x----------------------------------------|
D|---------------------------------------------------------------------------|
A|---------------------------------------------------------------------------|
E|---------------------------------------------------------------------------|

e|---------------------------------------------------------------------------|
B|-------12b-----12(b)h10---------9/10-----10-12\7---------7\2/7-------------|
G|---------------------------------------------------------------------------|
D|---------------------------------------------------------------------------|
A|---------------------------------------------------------------------------|
E|---------------------------------------------------------------------------|

e|---------------------------------------------------------------------------|
B|-------9b-------9--------9---9---9---9-----10------12----------------------|
G|---------------------------------------------------------------------------|
D|---------------------------------------------------------------------------|
A|---------------------------------------------------------------------------|
E|---------------------------------------------------------------------------|
                                         (shake the hell outta of it!!!!!)
e|------11b-------11--------9----12b----12------11-----------14~~~~~~~~------|
B|---------------------------------------------------------------------------|
G|---------------------------------------------------------------------------|
D|---------------------------------------------------------------------------|
A|---------------------------------------------------------------------------|
E|---------------------------------------------------------------------------|

e|------14b--------14----12------11b-----11----------------------------------|
B|---------------------------------------------12b-----12---------------------|
G|--------------------------------------------------------------11-----------|
D|------------------------------------------------------------------11-------|
A|---------------------------------------------------------------------------|
E|---------------------------------------------------------------------------|

e|---------------------------------------------------------------------------|
B|---------------------------------------------------------------------------|
G|--------9/--------8/---------6---------------------------------------------|
D|---------------------------------------------------------------------------|
A|---------------------------------------------------------------------------|
E|---------------------------------------------------------------------------|


Bridge:

Acoustic Gtr: Standard

              E  
When it's just me and you,
              Asus2
Who knows what we could do,
              C#m7(4th fret)         
If we can just make it through,
                          Asus2(ONE STRUM ONLY)
The toughest part of the day,

**** Do pre-chorus twice**** Then The finale!!!!!!!!


Electric Guitar w/ Distortion

Do THE CHORUS THEN AFTER AARON SAYs" IF WE COULD!!!!" repeat the last two rythms of the chorus.


Outro:

Electric Gtr; W/ Clean Tone

       (HOLD THROUGHOUT)
e|----------------------7--------------7----------------4h5------------------|
B|------------5-----5------5---------------5---------------------5-----------|
G|---------4-----4------------4-----4---------4-----4----------------4-------|
D|-----6-------------------------6---------------6---------------------------|
A|---------------------------------------------------------------------------|
E|---------------------------------------------------------------------------|

e|----------------5-------------------5---------------------5----------------|
B|----------5---------5--------------------5-------------------5-------------|
G|-------4----4-----------4-------4------------4-------4----------4-----4----|
D|---7------------------------7--------------------7-----------------7-------|
A|---------------------------------------------------------------------------|
E|---------------------------------------------------------------------------|

e|---2/4-----------------------------4-----------------4--------------4h5----|
B|----------5--------------5------------5-----------------5------------------|
G|-------------4------4--------4------------4-----4----------4---4-----------|
D|-----------------6---------------------------6---------------6-------------|
A|---------------------------------------------------------------------------|
E|---------------------------------------------------------------------------|



All righty I hope you enjoy it and it's definelty correct. 1oo% Peace.

| /  slide up
| \  slide down
| h  hammer-on
| p  pull-off
| ~  vibrato
| +  harmonic
| x  Mute note
===============================================================================

            
            
Suggest correction
Creating personal tab
Creating personal tab
You can edit any tab online and save it as your Personal.

You can edit, replace or remove any tab part or add personal notes – all changes will be seen only by you.

Personal tabs can be accessed anytime from any device, even offline.
Learn more »
comments
print report bad tab
2 comments total.
0 reply
tuluks 675 Mar 20, 2007 07:46 PM

i've seen the book too...

0 reply
staind915 300 Mar 22, 2007 12:24 PM

im sure you have

guest
You may want to rate the tab now too:
select rating
Wanna post a correction for this tab? Suggest correction