Oops, an error
Loading. Please wait.

Excess Baggage tab

version 1
version 1

Whole song

Interactive

by Staind
38,153 views 111 this week
6 commentsread comments
1 2 3 4 5
x 30
add to favorites
×
Save as Personal and add changes to this tab that will be seen only by you. Learn more ›
×
You can save this tab as Personal to edit and correct it or add notes. All changes will be seen only by you. Learn more »
launch autoscroll
font size
0
reset
how to read this tab
guitar tuner
edit
Autoscroll
slow
fast
+/-
esc
set tempo
stop
Tuning: 1/2 a step down
Tabbed by Erik Nilsen

[Part 1]
eb|-----------------|---------------|---------------|
Bb|-----------------|---------------|---------------|
Gb|---------------0-|---------------|-----0---------|  (x2)
Db|-----------4-----|-4-------------|-4-------4-----|
Ab|-------2---------|-----2-------2-|-------------2-|
Eb|---0-------------|---------0-----|---------------|

[Part 2]
eb|-----------------|---------------|---------------|
Bb|-----------------|---------------|---------------|
Gb|---------------0-|---------------|-----0---------|  (x2)
Db|-----------4-----|-4-------------|-4-------4-----|
Ab|-------2---------|-----2-------2-|-------------2-|
Eb|---3-------------|---------3-----|---------------|

[Chorus] 
eb|-----------------|---------------|---------------|
Bb|---------------0-|---------------|-----0---------|
Gb|-----------2-----|-2-------------|-2-------2-----| (Continue to 
Db|-------2---------|-----2-------2-|-------------2-| next part)
Ab|---0-------------|---------0-----|---------------|
Eb|-----------------|---------------|---------------|

eb|-----------------|---------------|---------------|
Bb|---------------0-|---------------|-----0---------|
Gb|-----------0-----|-0-------------|-0-------0-----|
Db|-------2---------|-----2-------2-|-------------2-|
Ab|---3-------------|---------3-----|---------------|
Eb|-----------------|---------------|---------------|


************************************

| b  Bend

************************************

            
            
Suggest correction
Creating personal tab
Creating personal tab
You can edit any tab online and save it as your Personal.

You can edit, replace or remove any tab part or add personal notes – all changes will be seen only by you.

Personal tabs can be accessed anytime from any device, even offline.
Learn more »
comments
print report bad tab
6 comments total. Showing first comments. show 1 bad comment
-1 reply
freonite 0 Dec 12, 2002 07:00 PM

DO VARE NORSK? jeg også, dette er en føkkings bra sang.

0 reply
Darkpsyde213 10 Apr 06, 2003 08:00 PM

this tab is perfect except for the fact that during the verses you play (part 1 followed by part 2) 4 times, and after the first complete chorus you play part 1 then proceed to the verse.

***Darkpsyde213***

guest
You may want to rate the tab now too:
select rating
Wanna post a correction for this tab? Suggest correction