Oops, an error
Loading. Please wait.

Falling tab

version 2
version 2

Whole song

Interactive

by Staind
8,145 views 1 this week
1 commentread comment
1 2 3 4 5
x 6
add to favorites
×
Save as Personal and add changes to this tab that will be seen only by you. Learn more ›
×
You can save this tab as Personal to edit and correct it or add notes. All changes will be seen only by you. Learn more »
launch autoscroll
font size
0
reset
how to read this tab
guitar tuner
edit
Autoscroll
slow
fast
+/-
esc
set tempo
stop
-------------------------------------------------------------------------------
                             Falling - Staind
-------------------------------------------------------------------------------
Tabbed by: Shane Gatewood
Email: rgatewoo@calumet.purdue.edu


Tuning: Drop Db ( Db Ab Db Gb Bb eb )


i tabbed this all by ear so theres prolly a few
errors in it.. the solo was a lil tricky at first
but i think i got pretty close.. so for the most part this is how i play it

u dont hav to play it exactly the way i tabbed it..
just listen to the song and use this as a guide

hit me up if u think somethings wrong or u need help


Intro

   just use some
   feedback for this
eb|-------|
Bb|-------|
Gb|---7---|
Db|-------|
Ab|-------|
Db|-------|

eb|-------------------------------------|
Bb|-------------------------------------|
Gb|-------------------------------------|
Db|---3p0-0-0-3p0-0-0-0-6-6-6-6-5-5-5---|play 8 times
Ab|---3p0-0-0-3p0-0-0-0-6-6-6-6-5-5-5---|
Db|---3p0-0-0-3p0-0-0-0-6-6-6-6-5-5-5---|
          . .     . . .


Verse


eb|---------------------------------------------------------------|
Bb|---------------------------------------------------------------|
Gb|---------------------------------------------------------------|
Db|---------------------------------------------------------------|
Ab|---3/5-----3p0-----1p0-----3p0-----3/5-----3p0-----1p0-----3---|
Db|-------0-0-----0-0-----0-0-----0-0-----0-0-----0-0-----0-0-----|
          . .     . .     . .     . .     . .     . .     . .

eb|---------------------------------------------------------------|
Bb|---------------------------------------------------------------|
Gb|---------------------------------------------------------------|
Db|---------------------------------------------------------------|
Ab|---3/5-----3p0-----1p0-----3p0-----3/5-----3p0-----1p0---3-5---|
Db|-------0-0-----0-0-----0-0-----0-0-----0-0-----0-0-----0-------|
          . .     . .     . .     . .     . .     . .     .

eb|-----------------------------------------------------|
Bb|---3-----------------------3-------------------------|
Gb|-----2-----------------------2-----------------------|
Db|-------0-0-5p0-0-0-8p7-5p3-----0-0-5p0-0-0-8p7---7---|
Ab|-----------------------------------------------------|
Db|-----------------------------------------------------|
          . .     . .             . .     . .

eb|-----------------------------------------------------|
Bb|---3-----------------------3-------------------------|
Gb|-----2-----------------------2-----------------------|
Db|-------0-0-5p0-0-0-8p7-5p3-----0-0-5p0-0-0-8p7-------|
Ab|-----------------------------------------------5-5-5-|
Db|-----------------------------------------------------|
          . .     . .             . .     . .


Pre-Chorus

   play this 3 times                         then play this once
eb|-------------------------------------|   |-------------------------------------|
Bb|-------------------------------------|   |-------------------------------------|
Gb|-------------------------------------|   |-------------------------------------|
Db|---3p0-0-0-3p0-0-0-0-6-6-6-6-5-5-5---|   |---3p0-0-0-3p0-0-0-0-5-5-5-5/7-7-7---|
Ab|---3p0-0-0-3p0-0-0-0-6-6-6-6-5-5-5---|   |---3p0-0-0-3p0-0-0-0-5-5-5-5/7-7-7---|
Db|---3p0-0-0-3p0-0-0-0-6-6-6-6-5-5-5---|   |---3p0-0-0-3p0-0-0-0-5-5-5-5/7-7-7---|
          . .     . . .                             . .     . . .


Chorus: i just play each chord once but u can play each
        one as many times as u want to make it sound good


eb|-------------------|
Bb|-------------------|
Gb|-------------------|
Db|---8---5---0---7---|play 2 times
Ab|---8---5---0---7---|
Db|---8---5---0---7---|


Post-Chorus: u can play these and let it ring just to make
             some cool feedback before u start into the verse again

eb|-------|        |-------|
Bb|-------|        |-------|
Gb|-------|        |-------|
Db|---0---|        |---7---|
Ab|---0---|        |-------|
Db|---0---| and/or |-------|


play the verse

then play the pre-chorus

then play the chorus


Solo: im pretty sure the low chords are all
      palm muted but thats just what i think


eb|-------------|
Bb|-------------|
Gb|-------------|
Db|---0-3-2-3---|play 8 times
Ab|---0-3-2-3---|
Db|---0-3-2-3---|  <--  i think he mite just play an open chord but i think this sounds better
      . . . .

eb|---------------------------------------------------------------|
Bb|---10---------10---------11------------------------------------|
Gb|------10-9-10----10-9-10----10-9-10-7-10-9-10------------------|
Db|---------------------------------------------------------------|
Ab|---------------------------------------------------------------|
Db|---------------------------------------------------------------|

eb|---------------------------------------------------------------|
Bb|---10---------11-----------------------------------------------|
Gb|------10-9-10----10-9-10-7-10-9-10----10-9-10------------------|
Db|-----------------------------------10--------------------------|
Ab|---------------------------------------------------------------|
Db|---------------------------------------------------------------|

eb|-------------|
Bb|-------------|
Gb|-------------|
Db|---0-3-2-3---|play 8 times
Ab|---0-3-2-3---|
Db|---0-3-2-3---|
      . . . .

eb|---------------------------------------------------------------|
Bb|---10---------11---------10------------------------------------|
Gb|------10-9-10----10-9-10----10-9-10-7-10-9-10------------------|
Db|---------------------------------------------------------------|
Ab|---------------------------------------------------------------|
Db|---------------------------------------------------------------|

eb|---------------------------------------------------------------|
Bb|---10---------11-----------------------------------------------|
Gb|------10-9-10----10-9-10-7-10-9-10----10-9-10------------------|
Db|-----------------------------------10--------------------------|
Ab|---------------------------------------------------------------|
Db|---------------------------------------------------------------|

eb|-------------|
Bb|-------------|
Gb|-------------|
Db|---0-3-2-3---|play 8 times
Ab|---0-3-2-3---|
Db|---0-3-2-3---|
      . . . .

eb|-----------------------------------------------------|
Bb|---10----10----11----10----------10----11----10------|
Gb|------10----10----10----10----10----10----10----10---|
Db|---------------------------10------------------------|
Ab|-----------------------------------------------------|
Db|-----------------------------------------------------|

eb|-----------------------------------------------------|
Bb|---------------11----------11-11-11-11-11-11-11-11---|slowly bend the 11
Gb|------10-9-10-----10-9-10----------------------------|notes as u play it
Db|---10------------------------------------------------|
Ab|-----------------------------------------------------|
Db|-----------------------------------------------------|

eb|-------------|
Bb|-------------|
Gb|-------------|
Db|---0-3-2-3---|play 8 times
Ab|---0-3-2-3---|
Db|---0-3-2-3---|
      . . . .


play the chorus


Outro

   play 3 times                              then play this end to end it
eb|-------------------------------------|   |-------------------------------|
Bb|-------------------------------------|   |-------------------------------|
Gb|-------------------------------------|   |-------------------------------|
Db|---3p0-0-0-3p0-0-0-0-6-6-6-6-5-5-5---|   |---3p0-0-0-3p0-0-0-0-6-6-6-5---|
Ab|---3p0-0-0-3p0-0-0-0-6-6-6-6-5-5-5---|   |---3p0-0-0-3p0-0-0-0-6-6-6-5---|
Db|---3p0-0-0-3p0-0-0-0-6-6-6-6-5-5-5---|   |---3p0-0-0-3p0-0-0-0-6-6-6-5---|
          . .     . . .                             . .     . . .

| .  palm mute
| /  slide up
| \  slide down
| h  hammer-on
| p  pull-off
| ~  vibrato
| +  harmonic
| x  Mute note
===============================================================================

            
            
Suggest correction
Creating personal tab
Creating personal tab
You can edit any tab online and save it as your Personal.

You can edit, replace or remove any tab part or add personal notes – all changes will be seen only by you.

Personal tabs can be accessed anytime from any device, even offline.
Learn more »
comments
print report bad tab
1 comment total.
0 reply
ccg93 10 Dec 11, 2008 01:55 PM

sounds great!!!! 5/5*

guest
You may want to rate the tab now too:
select rating
Wanna post a correction for this tab? Suggest correction