Oops, an error
Loading. Please wait.

Let It Out tab

version 1
version 1

Whole song

Interactive

by Staind
5,858 views 3 this week
1 commentread comment
1 2 3 4 5
x 8
add to favorites
×
Save as Personal and add changes to this tab that will be seen only by you. Learn more ›
×
You can save this tab as Personal to edit and correct it or add notes. All changes will be seen only by you. Learn more »
launch autoscroll
font size
0
reset
how to read this tab
guitar tuner
edit
Autoscroll
slow
fast
+/-
esc
set tempo
stop
Author
This is the song that all you people who bought the new album (14 shades of grey)
can download from staind.com in the vip section. I'm 100% possitive on this.

Verses
    Bm                 C
Eb|-------------------------------------|
Bb|----3-----3-----3-----3-----3-----3--|
Gb|------0-----0-----------0-----0------|
Db|-------------------------------------|
Ab|--2-----2-----2-----3-----3-----3----|
Eb|-------------------------------------|
     F#                G
Eb|-------------------------------------|
Bb|----3-----3-----3-----3-----3-----3--|
Gb|------0-----0-----------0-----0------|
Db|-------------------------------------|
Ab|-------------------------------------|
Eb|--2-----2-----2-----3-----3-----3----|

The last time you play it on each verse play it like this.
     Bm                C
Eb|-------------------------------------|
Bb|----3-----3-----3-----3-----3-----3--|
Gb|------0-----0-----------0-----0------|
Db|-------------------------------------|
Ab|--2-----2-----2-----3-----3-----3----|
Eb|-------------------------------------|
     F#                G
Eb|--------------------3--|
Bb|----3-----3-----3---3--|
Gb|------0-----0-------0--|
Db|--------------------0--|
Ab|--------------------x--|
Eb|--2-----2-----2-----3--|


Chorus

     Em  Bm  C   G
Eb|--0---2---0---3--|
Bb|--0---3---1---3--|
Gb|--0---4---0---0--|
Db|--2---4---2---0--|
Ab|--2---2---3---x--|
Eb|--0-----------3--|



Theres nothing left Nothing left to hold onto
There is no reason for me to fight anymore
I let it all go It will be easier I know
The weight on my shoulders tells me so

So now i stand here to sing another song for you
About the pain i felt before when there was nothing I could do
Now I staind here nothing left to say to you
But if you all could sing along it might help you make it thru

I tried to move on Nothing left to hurt me now
I hope its all in the past to stay
Just try to see thru all the fucked up shit we do
And hope that we all don't drift away

So now i stand here to sing another song for you
About the pain i felt before when there was nothing I could do
Now I staind here nothing left to say to you
But if you all could sing along it might help you make it thru

So let it all out Nothing left to hold on to
There is no reason for me to fight anymore
I let it all go Feel so much better now I know
The weight on my shoulders tells me so

So now i stand here to sing another song for you
About the pain i felt before when there was nothing I could do
Now I staind here nothing left to say to you
But if you all could sing along it might help you make it thru

Theres nothing left None of its worth holding on to
There is no reason for you to fight anymore

            
            
Suggest correction
Creating personal tab
Creating personal tab
You can edit any tab online and save it as your Personal.

You can edit, replace or remove any tab part or add personal notes – all changes will be seen only by you.

Personal tabs can be accessed anytime from any device, even offline.
Learn more »
comments
print report bad tab
1 comment total.
0 reply
ricola 10 Oct 21, 2003 08:00 PM

Your Chorus is wrong! It's:
Eb-0---3---0---3-|
Bb-0---3---3---3-|
Gb-0---0---0---0-|
Db-2---0---2---0-|
Ab-2---2---3---2-|
Eb-0---3---0---3-|

guest
You may want to rate the tab now too:
select rating
Wanna post a correction for this tab? Suggest correction