Oops, an error
Loading. Please wait.

Let It Out tab

version 2
version 2

Whole song

Interactive

by Staind
1,585 views 1 this week
no commentswrite comment
1 2 3 4 5
2 more votes to show rating
add to favorites
×
Save as Personal and add changes to this tab that will be seen only by you. Learn more ›
×
You can save this tab as Personal to edit and correct it or add notes. All changes will be seen only by you. Learn more »
launch autoscroll
font size
0
reset
how to read this tab
guitar tuner
edit
Autoscroll
slow
fast
+/-
esc
set tempo
stop
Staind - Let It Out

Tuning - Half Step Down

Strumming Chords:

Em7(1)   - x22033 
Em7(2)   - 0xx033 
Cadd9    - x32033
Dadd4/F# - 2x0033
G        - 320033


INTRO: 

     Em7             Cadd9
Eb|--------------------------0----------|
Bb|----3-----3-----3-------3-----3------|
Gb|------0-----0-------------------0----|
Db|----------------------------------0--|
Ab|--2-----2-----2---3------------------|
Eb|-------------------------------------|

     Dadd/F#           G
Eb|----------0---------------0----------|
Bb|--------3-----3---------3-----3------|
Gb|----------------0---------------0----|
Db|------------------0---------------0--|
Ab|-------------------------------------|
Eb|--2-----------------3----------------|

     Em7               Cadd9
Eb|----------0---------------0----------|
Bb|--------3-----3---------3-----3------|
Gb|----------------0---------------0----|
Db|------------------0---------------0--|
Ab|-------------------------------------|
Eb|--2-----------------3----------------|

     Dadd/F#           G
Eb|----------0---------------0----------|
Bb|--------3-----3---------3-----3------|
Gb|----------------0---------------0----|
Db|------------------0---------------0--|
Ab|-------------------------------------|
Eb|--2-----------------3----------------|


VERSE 1: 

     Em7               Cadd9
Eb|----------0---------------0----------|
Bb|--------3-----3---------3-----3------|
Gb|----------------0---------------0----|
Db|------------------0---------------0--|
Ab|--2-----------------3----------------|
Eb|-------------------------------------|

     Dadd/F#           G
Eb|----------0---------------0----------|
Bb|--------3-----3---------3-----3------|
Gb|----------------0---------------0----|
Db|------------------0---------------0--|
Ab|-------------------------------------|
Eb|--2-----------------3----------------|


CHORUS 1:

     Em7(2)            Em7(1)
Eb|----------0---------------0----------|
Bb|--------3-----3---------3-----3------|
Gb|----------------0---------------0----|
Db|------------------0---------------0--|
Ab|--------------------2----------------|
Eb|--0----------------------------------|

     Cadd9             G
Eb|----------0---------------0----------|
Bb|--------3-----3---------3-----3------|
Gb|----------------0---------------0----|
Db|------------------0---------------0--|
Ab|--3----------------------------------|
Eb|--------------------3----------------|

VERSE 2 - 3:

     Em7               Cadd9
Eb|-------------------------------------|
Bb|----3-----3-----3-----3-----3-----3--|
Gb|------0-----0-----------0-----0------|
Db|-------------------------------------|
Ab|--2-----2-----2-----3-----3-----3----|
Eb|-------------------------------------|

     Dadd/F#           G
Eb|-------------------------------------|
Bb|----3-----3-----3-----3-----3-----3--|
Gb|------0-----0-----------0-----0------|
Db|-------------------------------------|
Ab|-------------------------------------|
Eb|--2-----2-----2-----3-----3-----3----|


CHORUS 2 - 3:

     Em7(2)            Em7(1)
Eb|-------------------------------------|
Bb|----3-----3-----3-----3-----3-----3--|
Gb|------0-----0-----------0-----0------|
Db|-------------------------------------|
Ab|--------------------2-----2-----2----|
Eb|--0-----0-----0----------------------|

     Cadd9             G
Eb|-------------------------------------|
Bb|----3-----3-----3-----3-----3-----3--|
Gb|------0-----0-----------0-----0------|
Db|-------------------------------------|
Ab|--3-----3-----3----------------------|
Eb|--------------------3-----3-----3----|


OUTRO:

     Em7               Cadd9
Eb|-------------------------------------|
Bb|----3-----3-----3-----3-----3-----3--|
Gb|------0-----0-----------0-----0------|
Db|-------------------------------------|
Ab|--2-----2-----2-----3-----3-----3----|
Eb|-------------------------------------|

     Dadd/F#           G
Eb|--------------------3--|
Bb|----3-----3-----3---3--|
Gb|------0-----0-------0--|
Db|--------------------0--|
Ab|--------------------x--|
Eb|--2-----2-----2-----3--|



INTRO:

Em7   Cadd9   Dadd4/F#   G

Em7   Cadd9   Dadd4/F#   G


VERSE 1: 

Em7            Cadd9 Dadd4/F#  G     
Theres nothing left Nothing left to hold onto

Em7            Cadd9 Dadd4/F#  G    
There is no reason for me to fight anymore

Em7            Cadd9 Dadd4/F#  G    
I let it all go It will be easier I know

Em7            Cadd9 Dadd4/F#  G    
The weight on my shoulders tells me so


CHORUS 1:

Em7(2)         Em7(1) Cadd9    G    
So now I stand here to sing another song for you

Em7(2)         Em7(1) Cadd9    G  
About the pain I felt before when there was nothing I could do

Em7(2)         Em7(1) Cadd9    G   
Now I stand here nothing left to say to you

Em7(2)         Em7(1) Cadd9    G   
But if you all could sing along it might help you make it through


VERSE 2:

Em7            Cadd9 Dadd4/F#  G    
I tried to move on Nothing left to hurt me now

Em7            Cadd9 Dadd4/F#  G    
I hope its all in the past to stay

Em7            Cadd9 Dadd4/F#  G     
Just try to see thru all the fucked up shit we do

Em7            Cadd9 Dadd4/F#  G    
And hope that we all don't drift away


CHORUS 2:

Em7(2)         Em7(1) Cadd9    G    
So now I stand here to sing another song for you

Em7(2)         Em7(1) Cadd9    G  
About the pain I felt before when there was nothing I could do

Em7(2)         Em7(1) Cadd9    G   
Now I stand here nothing left to say to you

Em7(2)         Em7(1) Cadd9    G   
But if you all could sing along it might help you make it through


VERSE 3:

Em7            Cadd9 Dadd4/F#  G    
So let it all out Nothing left to hold on to

Em7            Cadd9 Dadd4/F#  G    
There is no reason for me to fight anymore

Em7            Cadd9 Dadd4/F#  G     
I let it all go Feel so much better now I know

Em7            Cadd9 Dadd4/F#  G     
The weight on my shoulders tells me so


CHORUS 3:

Em7(2)         Em7(1) Cadd9    G    
So now I stand here to sing another song for you

Em7(2)         Em7(1) Cadd9    G  
About the pain I felt before when there was nothing I could do

Em7(2)         Em7(1) Cadd9    G   
Now I stand here nothing left to say to you

Em7(2)         Em7(1) Cadd9    G   
But if you all could sing along it might help you make it through


OUTRO:

Em7            Cadd9 Dadd4/F#  G    
Theres nothing left None of its worth holding on to

Em7            Cadd9 Dadd4/F#  G    
There is no reason for you to fight anymore



Chords by josharnold

            
            
Suggest correction
Creating personal tab
Creating personal tab
You can edit any tab online and save it as your Personal.

You can edit, replace or remove any tab part or add personal notes – all changes will be seen only by you.

Personal tabs can be accessed anytime from any device, even offline.
Learn more »
Give kudos to tab author, rate the tab!
1 2 3 4 5
comments
print report bad tab
guest
You may want to rate the tab now too:
select rating
Wanna post a correction for this tab? Suggest correction