Oops, an error
Loading. Please wait.
We have an official Outside tab made by UG professional guitarists. Check out the tab »
×
by Staind feat. Fred Durst
1,983 views 1 this week
3 commentsread comments
1 2 3 4 5
x 4
add to favorites
×
Save as Personal and add changes to this tab that will be seen only by you. Learn more ›
×
You can save this tab as Personal to edit and correct it or add notes. All changes will be seen only by you. Learn more »
launch autoscroll
font size
0
reset
guitar tuner
backing track
0:00
0:00
edit
Autoscroll
slow
fast
+/-
esc
set tempo
stop
Author
Tabbed by Zach_evil


Intro:

G|--------------------------------------|
D|-1--1-1-1-----------------------------|
A|----------4--4-4-4--------------------|X2
E|-------------------2--2-2-2--3--3-3-3-|




Verse 1:

G|--------------------------------------|
D|-1--1-1-1-----------------------------|
A|----------4--4-4-4--------------------|X4
E|-------------------2--2-2-2--3--3-3-3-|




Chorus 1:

G|--------------------------------------|
D|-1--1-1-1-----------------------------|
A|--------------------4--4-4-4----------|X2
E|----------2--2-2-2-----------4--4-4-4-|




Bridge 1:

G|--------------------------------------|
D|-1--1-1-1-----------------------------|
A|----------4--4-4-4--------------------|X2
E|-------------------2--2-2-2--3--3-3-3-|




Verse 2:

G|--------------------------------------|
D|-1--1-1-1-----------------------------|
A|----------4--4-4-4--------------------|X4
E|-------------------2--2-2-2--3--3-3-3-|




Chorus 2:

G|--------------------------------------|
D|-1--1-1-1-----------------------------|
A|--------------------4--4-4-4----------|X2
E|----------2--2-2-2-----------4--4-4-4-|




Bridge 2:

G|--------------------------------------|
D|-1--1-1-1-----------------------------|
A|--------------------4--4-4-4----------|X2
E|----------2--2-2-2-----------4--4-4-4-|




Verse 3:

G|--------------------------------------|
D|-1--1-1-1-----------------------------|
A|----------4--4-4-4--------------------|X4
E|-------------------2--2-2-2--3--3-3-3-|




Chorus/outro 3:


G|--------------------------------------|
D|-1--1-1-1-----------------------------|
A|--------------------4--4-4-4----------|X2
E|----------2--2-2-2-----------4--4-4-4-|



if you liked this tab or want a song tabbed for bass email me at zach_evil@hotmail.com






            
            
Suggest correction
Creating personal tab
Creating personal tab
You can edit any tab online and save it as your Personal.

You can edit, replace or remove any tab part or add personal notes – all changes will be seen only by you.

Personal tabs can be accessed anytime from any device, even offline.
Learn more »
comments
print report bad tab
3 comments total.
0 reply
ryancassady 10 Jun 03, 2006 03:36 PM

Your notes are off, and you're not in the right tuning, at that

0 reply
Zach_evil 75 Jun 04, 2006 05:52 AM

i know its not in the right tuning but the notes are right.

0 reply
HeadHunter67 31 Sep 21, 2010 05:19 AM

The notes are correct for standard EADG tuning, they're simply an octave higher. It's about the only way you can play it on a 4-string without retuning the bass.

I'm going to give this a try - the people I play with want to do this song and I don't want to retune my bass for one song in the set. Until I get another bass or a 5-string, I don't see any other solution.

guest
You may want to rate the tab now too:
select rating
Wanna post a correction for this tab? Suggest correction