Oops, an error
Loading. Please wait.

Schizophrenic Conversations tab

version 2
version 2

Whole song

Interactive

by Staind
1,514 views 3 this week
no commentswrite comment
1 2 3 4 5
1 last vote to show rating
add to favorites
×
Save as Personal and add changes to this tab that will be seen only by you. Learn more ›
×
You can save this tab as Personal to edit and correct it or add notes. All changes will be seen only by you. Learn more »
launch autoscroll
font size
0
reset
how to read this tab
guitar tuner
edit
Autoscroll
slow
fast
+/-
esc
set tempo
stop
Author
Artist: Staind
Song: Schizophrenic Conversations
Album: Chapter V
Tabbed By: Cassidy63
Tuning: Drop Db (Db Ab Db Gb Bb Eb)
*After searching through a lot of guitar tabs I couldn't find one for this
song that fit perfectly, so i decided to tab it myself, hope you enjoy*


Intro/Riff 1

Eb|-----------------------------------------------------------------||
Bb|-----------------------------------------------------------------||
Gb|--------------------------------------------7-6-7---------11-----|| x6
Db|--9--9---13-11-9--7--9---11/12-11-9--5--7----------7--9-----9-7--||
Ab|--9---9-----------7---7--------------5---5---------7---7---------||
Db|--9----9----------7----7-------------5----5--------7----7--------||

Chorus

Eb|--------------------------------||
Bb|--------------------------------||
Gb|--7--9--11-9--7--9--11-9--7--9--|| Figure out Strumming
Db|--5--7--9--7--5--7--9--7--5--7--||
Ab|--5--7--9--7--5--7--9--7--5--7--||
Db|--5--7--9--7--5--7--9--7--5--7--||

Solo

Eb|------------------------------------------------------------------||
Bb|--12--12-7-12-14--12-14-15-14-12/-19--17-15-14--15--14--12-10-12--||
Gb|------------------------------------------------------------------||
Db|------------------------------------------------------------------||
Ab|------------------------------------------------------------------||
Db|------------------------------------------------------------------||

Riff 1

Eb|----------------------------------------------------------------||
Bb|----------------------------------------------------------------||
Gb|--------------------------------------------7-6-7---------11----||x6
Db|--9--9---13-11-9--7--9---11/12-11-9--5--7----------7--9-----9-7-||
Ab|--9---9-----------7---7--------------5---5---------7---7--------||
Db|--9----9----------7----7-------------5----5--------7----7-------||

Chorus

Eb|--------------------------------||
Bb|--------------------------------||
Gb|--7--9--11-9--7--9--11-9--7--9--|| Figure out Strumming
Db|--5--7--9--7--5--7--9--7--5--7--||
Ab|--5--7--9--7--5--7--9--7--5--7--||
Db|--5--7--9--7--5--7--9--7--5--7--||

Bridge

Eb|----------------------------||
Bb|--7--10/----------------10--||
Gb|--x---x/--6--9/--11--9---x--|| x4
Db|--4---7/--x--x/---x--x---7--||
Ab|----------4--7/---9--7------||
Db|----------------------------||

Chorus

Eb|--------------------------------------------||
Bb|--------------------------------------------||
Gb|--7--9--11-9--7--9--11-9--7--9--11-9--7--9--|| Figure out Strumming
Db|--5--7--9--7--5--7--9--7--5--7--9--7--5--7--||
Ab|--5--7--9--7--5--7--9--7--5--7--9--7--5--7--||
Db|--5--7--9--7--5--7--9--7--5--7--9--7--5--7--||

Outro

Eb|----------------------------------------||
Bb|----------------------------------------||
Gb|----------------------------------------||
Db|--9--9---13-11-9--7--9---11/12-11-9--7--||
Ab|--9---9-----------7---7--------------5--||
Db|--9----9----------7----7-------------5--||


            
            
Suggest correction
Creating personal tab
Creating personal tab
You can edit any tab online and save it as your Personal.

You can edit, replace or remove any tab part or add personal notes – all changes will be seen only by you.

Personal tabs can be accessed anytime from any device, even offline.
Learn more »
Give kudos to tab author, rate the tab!
1 2 3 4 5
comments
print report bad tab
guest
You may want to rate the tab now too:
select rating
Wanna post a correction for this tab? Suggest correction