Oops, an error
Loading. Please wait.
We have an official So Far Away tab made by UG professional guitarists. Check out the tab »
×

So Far Away intro tab

by Staind
74,466 views 33 this week
6 commentsread comments
1 2 3 4 5
x 21
add to favorites
×
Save as Personal and add changes to this tab that will be seen only by you. Learn more ›
×
You can save this tab as Personal to edit and correct it or add notes. All changes will be seen only by you. Learn more »
launch autoscroll
font size
0
reset
how to read this tab
guitar tuner
edit
Autoscroll
slow
fast
+/-
esc
set tempo
stop
Okay....First of all, hats off to Staind for composing this amazing song.
Probably one of the most beautiful ones on the new album. Anyways, this is my
first Tab, so here goes. (this sounds alright to me, so if you think it
sucks...go look for another, it's not my problem.)
-------------------------------------------------------------------------------
                             SO FAR AWAY - Staind
-------------------------------------------------------------------------------

Tabbed by: Tricky Dicky
Email: hyper_physikal@hotmail.com

Tuning: Standard

Okay...Guitars One and Two play their respective parts at the same time.
Listen to the song, you'll get it.

Guitar One:

e|--7---7-7--8---8-8--10---10-10--5------------------------------------------|
B|-----8-8------8-8-------8--8--------7-8------------------------------------|
G|---------------------------------------------------------------------------|
D|---------------------------------------------------------------------------|
A|---------------------------------------------------------------------------|
E|---------------------------------------------------------------------------|

Guitar Two:

e|------3-----3-----3-----3-----3-----3----2--3------------------------------|
B|--0-0---0-0---1-1---1-1---3-3---3-3----------------------------------------|
G|--------------------------------------2------------------------------------|
D|---------------------------------------------------------------------------|
A|---------------------------------------------------------------------------|
E|---------------------------------------------------------------------------|


That's all there is too it! just listen to the song for timing, and play this.
Once again, if it doesn't sound right (although i think it's pretty accurate)
Sorry! Maybe one day I'll get off my lazy-ass and finish the song! who knows!
===============================================================================

            
            
Suggest correction
Creating personal tab
Creating personal tab
You can edit any tab online and save it as your Personal.

You can edit, replace or remove any tab part or add personal notes – all changes will be seen only by you.

Personal tabs can be accessed anytime from any device, even offline.
Learn more »
comments
print report bad tab
6 comments total. Showing first comments.
0 reply
aedude99 10 Aug 02, 2003 08:00 PM

E|--1---------1---|--2---------2---|--3---------3---|
B|------2---2-----|------2---2-----|------2---2---3-|
G|--------3-------|--------3-------|--------3-------|
D|----------------|----------------|----------------|
A|----------------|----------------|----------------|
E|----------------|----------------|----------------|

0 reply
Stevenm2k3 10 Aug 30, 2003 08:00 PM

Guitar 1
Tuning: Standard
">" = pick next cord

|-6----6>7----7>9----9>5-----|
|---7-7----7-7----7-7----6---|
|----6------6------6-------6-|
|----------------------------|
|----------------------------|
|----------------------------|

Guitar 2
Tuning: Standard
"/" don't pick next cord

|----2/1----2/1----2/1---1/2-|
|---2---2--2---2--2---2------|
|----------------------------|
|----------------------------|
|----------------------------|
|----------------------------|

Guitar 3
Tuning: Tune the 1st string's 6th fret to 2nd string open fret.(Basicly, drop the 1st string down one fret)

|----------------------------|
|----------------------------|
|----------------------------|
|---4-4----4-4----4-4----4-4-|
|--------2-------------4-----|
|-0-------------3------------|

0 reply
hak_hap 300 Aug 17, 2005 08:00 PM

you two suck... there is no accurate version of the intro... LISTEN TO THE SONG AND YOU'LL HEAR THAT THERES A SLIDE

guest
Wanna post a correction for this tab? Suggest correction