Oops, an error
Loading. Please wait.

Tangled Up In You tab

version 1
version 1

Whole song

Interactive

by Staind
66,719 views 93 this week
20 commentsread comments
1 2 3 4 5
x 14
add to favorites
×
Save as Personal and add changes to this tab that will be seen only by you. Learn more ›
×
You can save this tab as Personal to edit and correct it or add notes. All changes will be seen only by you. Learn more »
launch autoscroll
font size
0
reset
how to read this tab
guitar tuner
edit
Autoscroll
slow
fast
+/-
esc
set tempo
stop
Author
Difficulty
Band: Staind
Song Name: Tangled Up In You
Tab by: cisco21c

*********************************************************************
After about 3 hours, I think I finally got this song down. Though
the tuning I'm not sure of, Mike uses a variety of tunings high and
low; while Aaron uses down 1/2 step mainly and sometimes drop d down
1/2 step also. This is in now way 100% perfect. I tabbed all by ear.
*********************************************************************

==From Low to High==

Acous. Gtr. 1 tuned:

Db Ab Db F Ab Db




  #INTRO



  let ring throughout.

Db|----------------|----------------|----------------|----------------|
Ab|----------------|----------------|----------------|----------------|
F |-----------0----|-----------0----|-----------5----|-----------5----|  X2
Db|--------2-------|--------2-------|--------7-------|--------7-------|
Ab|-----0----------|-----0----------|-----5----------|-----5----------|
Db|--0-------------|--0-------------|--5-------------|--5-------------|


  #VERSE
   
   "Your my world..."

Db|----------------|----------------|----------------|----------------|
Ab|----------------|----------------|----------------|----------------|
F |-----------0----|-----------0----|-----------5----|-----------5----|  X4
Db|--------2-------|--------2-------|--------7-------|--------7-------|
Ab|-----0----------|-----0----------|-----5----------|-----5----------|
Db|--0-------------|--0-------------|--5-------------|--5-------------|


  #CHORUS

  "And in this world..."

Db|----------------|----------------|----------------|----------------|
Ab|----------------|----------------|----------------|----------------|
F |-----------8----|-----------8----|-----------5----|-----------5----|  X2
Db|--------11------|--------11------|--------7-------|--------7-------|
Ab|-----9----------|-----9----------|-----5----------|-----5----------|
Db|--9-------------|--9-------------|--5-------------|--5-------------|


  #INTERLUDE
   

Db|----------------|----------------|----------------|----------------|
Ab|----------------|----------------|----------------|----------------|
F |-----------0----|-----------0----|-----------5----|-----------5----|
Db|--------2-------|--------2-------|--------7-------|--------7-------|
Ab|-----0----------|-----0----------|-----5----------|-----5----------|
Db|--0-------------|--0-------------|--5-------------|--5-------------|

Db|----------------|----------------|----------------|----------------|
Ab|----------------|----------------|----------------|----------------|
F |-----------0----|-----------0----|-----------5----|-------5--------|
Db|--------2-------|--------2-------|--------7-------|-------7--------|
Ab|-----0----------|-----0----------|-----5----------|-------5--------|
Db|--0-------------|--0-------------|--5-------------|-------5--------|




  #VERSE ->



  #CHORUS ->



  #BRIDGE

  "How long has it been...."

Db|----------------|----------------|----------------|----------------|
Ab|----------------|----------------|----------------|----------------|
F |-----------8----|-----------5----|-----------0----|-----------7----|  X2
Db|--------11------|--------7-------|--------7-------|--------9-------|
Ab|-----9----------|-----5----------|-----0----------|-----7----------|
Db|--9-------------|--5-------------|--0-------------|--7-------------|



  #CHORUS ->




  #OUTRO

                                              "I'm still tangled up in you..."

Db|----------------|----------------|----------------|----------------|
Ab|----------------|----------------|----------------|----------------|
F |-----------0----|-----------0----|-----------5----|-----------5----|  X2
Db|--------2-------|--------2-------|--------7-------|--------7-------|
Ab|-----0----------|-----0----------|-----5----------|-----5----------|
Db|--0-------------|--0-------------|--5-------------|--5-------------|

  

Db|---------------------------0-----|
Ab|----------------------0----------|
F |-----------------0---------------|
Db|------------2--------------------|
Ab|-------0-------------------------|
Db|--0------------------------------|




            
            
Suggest correction
Creating personal tab
Creating personal tab
You can edit any tab online and save it as your Personal.

You can edit, replace or remove any tab part or add personal notes – all changes will be seen only by you.

Personal tabs can be accessed anytime from any device, even offline.
Learn more »
comments
print report bad tab
20 comments total. Showing first comments.
+1 reply
JeRm the WoRm 10 Aug 20, 2008 03:33 PM

well, I tried out the tab, and the tuning you have didn't really work out for me....BUT, I used the same Verse and Chorus tab you have on an Open E tuning: (low to High) EBEG#BE, and I think it sounds pretty damn close to the album....try it out, and see if it works

+2 reply
staind915 300 Aug 30, 2008 10:50 PM

this tab is completely right

good work

+1 reply
travis012345678 78 Oct 04, 2008 09:30 AM

I think it's more like:
Db|----------------|----------------|----------------|----------------|
Ab|----------------|----------------|----------------|----------------|
F |----------------|-----------0----|-----------4----|-----------4----|
Db|--------2--4----|-------2--4-----|--------7-------|--------7-------|
Ab|-----0----------|-----0----------|-----5----------|-----5----------|
Db|--0-------------|--0-------------|--5-------------|--5-------------|

guest
You may want to rate the tab now too:
select rating
Wanna post a correction for this tab? Suggest correction