Oops, an error
Loading. Please wait.

The Corner tab

version 1
version 1

Whole song

Interactive

by Staind
9,557 views 1 this week
no commentswrite comment
1 2 3 4 5
x 4
add to favorites
×
Save as Personal and add changes to this tab that will be seen only by you. Learn more ›
×
You can save this tab as Personal to edit and correct it or add notes. All changes will be seen only by you. Learn more »
launch autoscroll
font size
0
reset
how to read this tab
guitar tuner
edit
Autoscroll
slow
fast
+/-
esc
set tempo
stop
Artist:Staind
Song:The Corner
Album:The Illusion of Progress
Tabbed By:Josh Hull

Tuned: 1/2 Step Down
This isn't exactly right, but it'll give you an idea and something
to improvise on. Tuning is 1/2 step down as Aaron always does.
Comments or questions: beatles_28@hotmail.com

Intro/Verse

D#-----------------------------------------------------------------|
A#--------5-----------5-----------1-----------1--------------------|
F#------7---7-------7---7-------3---3-------3---3------------------|
C#----7-------7---7-------7---3-------3---3-------3----------------|
G#--5-----------5-----------1-----------1--------------------------|
D#-----------------------------------------------------------------|

Chorus

Here are the chords, you can play them or as i prefer, pick 'em out.

    F           C           Dm          Bb
D#--1-----------0-----------1--------------------------------------|
A#--1-----------1-----------3-----------3--------------------------|
F#--2-----------0-----------2-----------3--------------------------|
C#--3-----------2-----------0-----------3--------------------------|
G#--3-----------3-----------------------1--------------------------|
D#--1--------------------------------------------------------------|

            
            
Suggest correction
Creating personal tab
Creating personal tab
You can edit any tab online and save it as your Personal.

You can edit, replace or remove any tab part or add personal notes – all changes will be seen only by you.

Personal tabs can be accessed anytime from any device, even offline.
Learn more »
comments
print report bad tab
guest
Wanna post a correction for this tab? Suggest correction