Oops, an error
Loading. Please wait.

Trippy chords

by Staind
73 views 1 this week
no commentswrite comment
1 2 3 4 5
3 more votes to show rating
add to favorites
×
Save as Personal and add changes to this tab that will be seen only by you. Learn more ›
×
You can save this tab as Personal to edit and correct it or add notes. All changes will be seen only by you. Learn more »
launch autoscroll
font size
0
reset
transpose
0
reset
simplify chords
display chords
guitar tuner
edit
Autoscroll
slow
fast
+/-
esc
set tempo
stop
Strumming
There is no strumming pattern for this song yet. and get +5 IQ
Artist: Staind
Album: Chapter V 
Song: Trippy (Original Version)


Dsus2: 0  Asus2: 0  Dsus2/G: 0
       3         0           3
       2         2           2 
       0         2           0
       0         0           0 
       x         x           3

[ Intro ]

Dsus2

d#|-----------------------------------------------------------|
A#|-----------------------------------------------------------|
F#|2--0---0----0-2---0-2----0---2--0---------0-2---0-2----0---|
C#|4----4----4-----4------4-----4----4-4---4-----4------4-----|
G#|-----------------------------------------------------------|
D#|-----------------------------------------------------------|

Dsus2

d#|-----------------------------------------------------------|
A#|-----------------------------------------------------------|
F#|2--0---0----0-2---0-2----0--------------0-2-----0--2-------|
C#|4----4----4-----4------4-----2-4-2-0--0-------0------------|
G#|-----------------------------------------------------------|
D#|-----------------------------------------------------------|

Dsus

d#|-----------------------------------------------------------|  ---
A#|-----------------------------------------------------------|     \
F#|2--0---0----0-2---0-2----0---2--0---------0-2---0-2----0---|     \
C#|4----4----4-----4------4-----4----4-4---4-----4------4-----|     \
G#|-----------------------------------------------------------|     \
D#|-----------------------------------------------------------|     \ You can play this part of Intro
                                                                    \ during the verses.
Dsus2                                                               \
                                                                    \
d#|-----------------------------------------------------------|     \
A#|-----------------------------------------------------------|     \
F#|2--0---0----0-2---0-2----0--------------0-2-----0--2-------|     \
C#|4----4----4-----4------4-----2-4-2-0--0-------0------0-0---|     \
G#|-----------------------------------------------------------|     \
D#|-----------------------------------------------------------|   ---    


[ Verse 1 ]

Dsus2
I can't believe how far I've come
                         Asus2  Dsus2
Now watch me stumble and come undone

If you take away these memories
           Dsus2/G  Asus2   Dsus2
All that's left     is just me

[ Chorus ]

               F#m  G
‘Cause I don't want this
            A    Dsus2         
And I don't need this
             F#m  G
And I don't feel  this
              A    Dsus2                        F#m   G
It seems that even though she's with me I can't shake this
         A   Dsus2
I can't fake this
            F#m  G
And I won't take this
    A  Dsus2
Anymore.

Dsus2

d#|-----------------------------------------------------------|
A#|-----------------------------------------------------------|
F#|2--0---0----0-2---0-2----0---2--0---------0-2---0-2----0---|
C#|4----4----4-----4------4-----4----4-4---4-----4------4-----|
G#|-----------------------------------------------------------|
D#|-----------------------------------------------------------|

[ Verse 2 ]

Dsus2
So you choose to break my heart
                        Asus2     Dsus2
I should have seen this from this start

I'm haunted by your apathy
           Dsus2/G  Asus2      Dsus2
All that's left     is killing me

[ Chorus ]

            F#m  G
Cos I don't want this
            A    Dsus2         
And I don't need this
            F#m  G
And I don't feel this
              A    Dsus2                        F#m   G
It seems that even though she's with me I can't shake this
        A    Dsus2
I can't fake this
            F#m  G
And I won't take this
   Asus2 
Anymore.

[ Bridge ]

       Bm                            G
You believe in the way you choose to be

                   Dsus2                    Asus2                      Bm
I've always had to see the brighter side of this so I don't loose my faith
                      G
Now the sun has gone away
                          Dsus2
It's getting colder every day
                      Asus2                            Dsus2
So before I freeze to death there's something I should say

[ Chorus ]

        F#m  G
I don't want this
        A    Dsus2
I don't need this
            F#m  G
And I don't feel this
              A    Dsus2                        F#m   G                   
It seems that even though she's with me I can't shake this
            A    Dsus2 
And I can't fake this
            F#m  G
And I won't take this

[ Outro ]
           G     Dsus2                        F#m  G
Though you say you understand you still won't face this
        A   Dsus2
Can't erase this
           F#m  G
I won't embrace this
    A  Dsus2
Anymore.

            
            
Suggest correction
Creating personal tab
Creating personal tab
You can edit any tab online and save it as your Personal.

You can edit, replace or remove any tab part or add personal notes – all changes will be seen only by you.

Personal tabs can be accessed anytime from any device, even offline.
Learn more »
Give kudos to tab author, rate the tab!
1 2 3 4 5
comments
print report bad tab
guest
You may want to rate the tab now too:
select rating
Wanna post a correction for this tab? Suggest correction